» » »

Holiday Parade, Driving Away Tabs (ver.2)

Artists:  A B C D E F G H I J K L M N O P Q R S T U V W X Y Z # 

Driving Away Tabs (ver.2)

Holiday Parade Tabs
Rating:
4/5 (2 votes)
Driving Away lessons Tabs too difficult? Try these video lessons and learn fast
                Tuning: EADGBe

Intro:

Palm-muted (strumming not shown, listen to song for timing)

e|----------------------------------------|
B|----------------------------------------|
G|--------6-6-6-6--4-4-4--3-3--4-4--6-6---|
D|-4-4-4--6-6-6-6--4-4-4--3-3--4-4--6-6---|
A|-4-4-4--4-4-4-4--2-2-2--1-1--2-2--4-4---|
E|-2-2-2----------------------------------|

e|-------------------------------|
B|-------------------------------|
G|--------6-6-6-6--4-4-4-4-4-4---|
D|-4-4-4--6-6-6-6--4-4-4-4-4-4---|
A|-4-4-4--4-4-4-4--2-2-2-2-2-2---|
E|-2-2-2-------------------------|
                             ^stop

Verse:
(palm-muted)
e|----------------------------------------|
B|----------------------------------------|
G|--------6-6-6-6--4-4-4--3-3--4-4--6-6---|
D|-4-4-4--6-6-6-6--4-4-4--3-3--4-4--6-6---|
A|-4-4-4--4-4-4-4--2-2-2--1-1--2-2--4-4---|
E|-2-2-2----------------------------------|

e|-------------------------------|
B|-------------------------------|
G|--------6-6-6-6--4-4-4-4-4-4---|
D|-4-4-4--6-6-6-6--4-4-4-4-4-4---|
A|-4-4-4--4-4-4-4--2-2-2-2-2-2---|
E|-2-2-2-------------------------| X2 (second time stop)

e|----------------------------------------|
B|----------------------------------------|
G|--------6-6-6-6--4-4-4--3-3--4-4--6-6---|
D|-4-4-4--6-6-6-6--4-4-4--3-3--4-4--6-6---|
A|-4-4-4--4-4-4-4--2-2-2--1-1--2-2--4-4---|
E|-2-2-2----------------------------------|

e|-------------------------------|
B|-------------------------------|
G|--------6-6-6-6--4-4-4-4-4-4---|
D|-4-4-4--6-6-6-6--4-4-4-4-4-4---|
A|-4-4-4--4-4-4-4--2-2-2-2-2-2---|
E|-2-2-2-------------------------| X2 (2nd time strum x244xx once and let ring)

Chorus:
(strumming not shown)

e|--------------|
B|--------------|
G|-4-----6--8---|
D|-4--4--6--8---|
A|-2--4--4--6---|
E|----2---------|

e|------------------|
B|------------------|
G|-4-----6--8--6----|
D|-4--4--6--8--6----|
A|-2--4--4--6--4----|
E|----2-------------|

e|--------------|
B|--------------|
G|-4-----6--6---|
D|-4--4--6--6---|
A|-2--4--4--4---|
E|----2---------|

e|---------------|
B|---------------|
G|-44------66----|
D|-44--44--66----|
A|-22--44--44----|
E|-----22--------|

Repeat:

Intro
Verse
Chorus

Bridge:

e|---------|
B|---------|
G|-8--4--6-|
D|-8--4--6-| X2 (one strum each)
A|-6--2--4-|
E|---------|

e|---------|
B|---------|
G|-8--4--6-|
D|-8--4--6-| All Strumming
A|-6--2--4-|
E|---------|

e|------------------------------------|
B|------------------------------------|
G|-8-8--10-10--11-11--13-13-13-13-----|
D|-x-x--x--x---x--x---x--x--x--x------|  Octaves or power chords
A|-6-6--8--8---9--9---11-11-11-11-----|  your choice doesn't sound
E|------------------------------------|  bad eitherway

e|--------------|
B|--------------|
G|-88--66--44---|
D|-88--66--44---|
A|-66--44--22---|
E|--------------|

Lead into chorus:

e|-----|
B|-----|
G|-----|
D|--4--| Let ring (2nd guitar)
A|--4--|
E|--2--|

1st guitar (lightly strumming)
e|----------------------------------------|
B|----------------------------------------|
G|--------6-6-6-6--4-4-4--3-3--4-4--6-6---|
D|-4-4-4--6-6-6-6--4-4-4--3-3--4-4--6-6---|
A|-4-4-4--4-4-4-4--2-2-2--1-1--2-2--4-4---|
E|-2-2-2----------------------------------|

e|---------------------|
B|---------------------|
G|--------6-6-6-6--4---|
D|-4-4-4--6-6-6-6--4---|
A|-4-4-4--4-4-4-4--2---|
E|-2-2-2---------------|
                   ^let ring

Chours x2


Ending:

e|-----|
B|-----|
G|-----|
D|--4--| Let ring (2nd guitar)
A|--4--|
E|--2--|

1st guitar (lightly strumming)
e|----------------------|
B|----------------------|
G|--------6-6-6-6--4----|
D|-4-4-4--6-6-6-6--4----|
A|-4-4-4--4-4-4-4--2----|
E|-2-2-2----------------|
                   ^let ring

This is a good song and not very difficult to play. 99.9% sure it's right. E-mail me any 
            

comments powered by Disqus
↑ Back to top | Holiday Parade Tabs for Driving Away. Lyrics for acoustic guitar and electric guitar. Tablatures and chords are parodies/interpretations of the original songs. You may use it for private study, scholarship, research or language learning purposes only