» » »

Hives, I Told You So Bass tabs (ver.1)

Artists:  A B C D E F G H I J K L M N O P Q R S T U V W X Y Z # 

I Told You So Bass tabs (ver.1)

Hives Tabs
Rating:
0/5 (0 votes)
I Told You So lessons Tabs too difficult? Try these video lessons and learn fast
                The Hives - I told you so


Guitar plays main riff 2 times,
Bass joins in at start of third main riff
and again on the fourth

Start
Starts:0:06 Ends:0:11
G|--------------------------------
D|--------------------------------    
A|5-------------------------------
E|--------------------------------  X2

Verse/chorus
Starts:0:14 Ends:0:27
G|--------------------------------
D|--------------------------------
A|5-5-0-3-3-3-0-8-8-8-0-1-1-1-1-1- 
E|-------------------------------- X4

Pause(drum solo) Starts:0:27 Ends:0:35

Verse/chorus
Starts:0:35 Ends:1:03
G|--------------------------------
D|--------------------------------
A|5-5-0-3-3-3-0-8-8-8-0-1-1-1-1-1- 
E|-------------------------------- X8

Bridge (hate to say i told you so)
Starts:1:03 Ends:1:06
G|----------------
D|0-0-0-0-0-0-0-0-
A|----------------
E|----------------

Verse/chorus
Starts:1:06 Ends:1:13
G|--------------------------------
D|--------------------------------
A|5-5-0-3-3-3-0-8-8-8-0-1-1-1-1-1- 
E|-------------------------------- X2

Bridge (Do Believe i told you so)
Starts:1:13 Ends:1:19
G|----------------
D|0-0-0-0-0-0-0-0-
A|----------------
E|---------------- X2

Starts:1:21 Ends:1:49
G|--------------------------------
D|--------------------------------
A|5-5-0-3-3-3-0-8-8-8-0-1-1-1-1-1- 
E|-------------------------------- X8

Bridge (Hate to say i told you so)
Starts 1:49 Ends:1:53
G|----------------
D|0-0-0-0-0-0-0-0-
A|----------------
E|----------------

Verse/chorus
Starts:1:53 Ends:2:00
G|--------------------------------
D|--------------------------------
A|5-5-0-3-3-3-0-8-8-8-0-1-1-1-1-1- 
E|-------------------------------- X2

Bridge (Do Believe i told you so)
Starts 2:00 Ends:2:05
G|----------------
D|0-0-0-0-0-0-0-0-
A|----------------
E|----------------

Verse/Bass solo (abit of Distortion)
Starts:2:07              Ends:2:35
G|--------------------------------
D|--------------------------------
A|5-5-0-3-3-3-0-8-8-8-0-1-1-1-1-1-
E|-------------------------------- X8

Verse/chorus
Starts:2:39              Ends:3:10
G|--------------------------------
D|--------------------------------
A|5-5-0-3-3-3-0-8-8-8-0-1-1-1-1-1-
E|-------------------------------- X8

End
Starts:3:10         Ends:3:17
G|---------------------------
D|---------------------------
A|-5~~~~~~~~~~~~~~~~~~~~~~---
E|---------------------------

Start  X2
Verse  X4
Verse  X8
Bridge X1
Verse  X2
Bridge X2
Verse  X8
Bridge X1
Verse  X2
Bridge X1
Verse  X8 - Solo w/ Distortion
Verse  X8
End    X1
            

comments powered by Disqus
↑ Back to top | Hives Bass for I Told You So. Lyrics for acoustic guitar and electric guitar. Tablatures and chords are parodies/interpretations of the original songs. You may use it for private study, scholarship, research or language learning purposes only