» » »

Hives, B Is For Brutus Tabs (ver.1)

Artists:  A B C D E F G H I J K L M N O P Q R S T U V W X Y Z # 

B Is For Brutus Tabs (ver.1)

Hives Tabs
 Rating:
4/5 (12 votes)
B Is For Brutus lessons Tabs too difficult? Try these video lessons and learn fast
                THE HIVES
B IS FOR BRUTUS
TYRANNASAURUS HIVES

INTRO

e------|         |----------------------------------|
B------|         |----------------------------------|
G------|         |----------------------------------|
D--5/9-|X3 THEN  |--4--4--4--4--5-------------------|
A--5/9-|         |--4--4--4--4--5-------------------|
E--3/7-|         |--2--2--2--2--3-------------------|
                             |----------------------|
                             |----------------------|
                             |----------------------|
                             |--0---0-1-2-1-0-------|
                             |----4-----------0-2---|
                             |----------------------|

MAIN RIFF

Guitar 1
e---------------------------------------------------------------|
B---------------------------------------------------------------|
G---------------------------------------------------------------|
D-----4-3-2-0--------0--------------4-3-2-0---0---0-1-2-1-0-----|
A--2-------------------4-4-0-----2--------------4-----------0-2-|
E---------------2-3----------2----------------------------------|

Guitar 2
e--------------------------|
B--------------------------|
G--4--4--4-2------------2--|
D--4--4--4-2--4-5--5--5-2--|
A--2--2--2-0--4-5--5--5-0--|
E-------------2-3--3--3----|

VERSE

e-------------------------------------|
B-----------------------------3---5---|
G-----------------------------2---4---|
D--4------0---4----4------0---0---2---|
A--2----0---0-2----2----0---0---------|
E-------------------------------------|

"...so if you do it, do it good, Brutus..."
e-----------------------------------------|
B-----------------------------------------|
G--7-----7/9-------12-11------9--7--11-4--|
D--7-----7/9-------12-11------9--7--11-4--|
A--5-----5/7-------10-9-------7--5--9--2--|
E-----------------------------------------|

MAIN RIFF

VERSE

BRIDGE=INTRO RIFF
            
Submit corrections

comments powered by Disqus
↑ Back to top | Hives Tabs for B Is For Brutus. Lyrics for acoustic guitar and electric guitar. Tablatures and chords are parodies/interpretations of the original songs. You may use it for private study, scholarship, research or language learning purposes only