» » »

These Backs Are Made For Stabbing Tabs (ver.2)

Artists:  A B C D E F G H I J K L M N O P Q R S T U V W X Y Z # 

These Backs Are Made For Stabbing Tabs (ver.2)

Hit The Lights
Rating:
3/5 (2 votes)

Tabs too difficult? Try these video lessons and learn fast.
                -------------------------------------------------------------------------
               These Backs Are Made For Stabbing-Hit the Lights
-------------------------------------------------------------------------




Intro:
Repeat 4 Times

 E-1-------1----------66666666666----------------------------------------|
 A-1-------1----------66666666666----------------------------------------|
 D-1-------1----------66666666666----------------------------------------|
 G------3--------3-------------------------------------------------------|
 B--3/4------3/4---------------------------------------------------------|
 e-----------------------------------------------------------------------|

Verse:

"You Play this Game so well"

 E------------------------------------------------------------------------|
 A------------------------------------------------------------------------|
 D--6-6-6-6-6-6-6-6-6-6-6-6-6-6-6-6-6-6-6-6-6-6-6-6-6-6-6-6-6-6-6-6-6-6-6-|
 G---8-8-8-8-8-8-8-8-8-8-8-8-8-8-8-8-8-8-8-8-8-8-8-8-8-8-8-8-8-8-8-8-8-8--|
 B------------------------------------------------------------------------|
 e------------------------------------------------------------------------|

"Cause Your Act is Nothing New"

 E--666666666---888888888---55555555555--8888888888----------------------|
 A--666666666---888888888---55555555555--8888888888----------------------|
 D--666666666---888888888---55555555555--8888888888----------------------|
 G-----------------------------------------------------------------------|
 B-----------------------------------------------------------------------|
 e-----------------------------------------------------------------------|
    **********  *********   ***********  **********

Pre-Chorus:

"If You...Swallow Your Pride"


E-10-----         E-8-----         E-6-----|
A-10-----         A-8-----         A-6-----|
D-10-----         D-8-----         D-6-----|
G-------- x9      G------- x9      G-------| x18
B--------         B-------         B-------|
e--------         e-------         e-------|


Chorus:

"You Look So Obvious..."

E-----------------101010101010-88888888888-66666666666-1-1-1-1-1-1-1-1-1-1-1-|
A--666666666/8-8--101010101010-88888888888-66666666666-1-1-1-1-1-1-1-1-1-1-1-|
D--888888888/1010-101010101010-88888888888-66666666666-1-1-1-1-1-1-1-1-1-1-1-|
G----------------------------------------------------------------------------|
B----------------------------------------------------------------------------|
e----------------------------------------------------------------------------|

Thats all I got for now but I will work on the rest of the song and post it on later.


*)Palm Mute
/)Slide
            
Tabs too difficult? Try these video lessons and learn fast.




comments powered by Disqus
↑ Back to top | Tablatures and chords are parodies/interpretations of the original songs. You may use it for private study, scholarship, research or language learning purposes only