» » »

Hit The Lights, On And On Tabs (ver.2)

Artists:  A B C D E F G H I J K L M N O P Q R S T U V W X Y Z # 

On And On Tabs (ver.2)

Hit The Lights Tabs
Rating:
5/5 (1 vote)
On And On lessons Tabs too difficult? Try these video lessons and learn fast
                -----------------------------------------------------------------------------
                             On And On – Hit The Lights
-----------------------------------------------------------------------------
----------------------------------------------------------------------------
Hi, this my first attempt at a tab.
This is my personal favorite off the album.
Have fun!

~3/6/09
I have not figured out the acoustic intro/verse part yet.
But I am working on it.
Hopefully I’ll be able to edit it.


=============================================================================
Tuning:eBGDAD
Guitar 1: Lead
Guitar 2: Rhythm
==============================Intro==========================================
Guitar 1 (0:00-0:56)
(Palm mute all)
e|-----------10-10-------12-12------14-12-10--------------10-10--------------|
B|-8-8-10-10-------10-10-------10-10---------10-8-8-10-10-------10-10--------|
G|--------------------------------------------------------------------7-7----|
D|---------------------------------------------------------------------------|
A|---------------------------------------------------------------------------|
D|---------------------------------------------------------------------------|

Guitar 1
(Palm mute all)
e|-------10-10------------|
B|-10-10-------10-10------|
G|------------------------| [x8]
D|------------------------|
A|------------------------|
D|------------------------|


==============================Pre-verse====================================

Guitar 2 (0:59-1:02)
(Soft to loud entrance)
e|----------|
B|----------|
G|----------|
D|-0--------|
A|-0--------|
D|-0--------|


==============================Verse========================================

Guitar 1 (1:02-1:37)
e|-----------10-10-------12-12------14-12-10--------------10-10-------------|
B|-8-8-10-10-------10-10-------10-10---------10-8-8-10-10-------10-10-------|
G|--------------------------------------------------------------------7-7---|
D|--------------------------------------------------------------------------|
A|--------------------------------------------------------------------------|
D|--------------------------------------------------------------------------|

Guitar 1
e|-------10-10------------|
B|-10-10-------10-10------|
G|------------------------| [x5]
D|------------------------|
A|------------------------|
D|------------------------|


Guitar 2 (1:18-1:38)
(1:18-1:29)(Start on third repeat of guitar1)pt.1      (1:30-1:38) pt.2
e|---------------------------------------------|      e|-----------|
B|---------------------------------------------|      B|-----------|
G|---------------------------------------------|[x2]  G|-----------| [x1]
D|-0-----------------------------------------5-|      D|-2----5----|
A|-0-----------------------------------------5-|      A|-2----5----|
D|-0-----------------------------------------5-|      D|-2----5----|


==============================Chorus=========================================

Guitar 2 (1:41-2:09)
(1:41-1:54)           pt.1      (1:55-2:09)                              pt.2
e|-----------------------|     e|-------------------------------------------|
B|-----------------------|     B|-------------------------------------------|
G|-----------------------|[x2] G|-------------------------------------------|
D|-0-----------5---------|     D|-9--------5--------9--------2-------5------|
A|-0—[x16]-----5-[x16]---|     A|-9-[x16]--5-[x16]--9-[x16]--2-[x8]--5-[x8]-|
D|-0-----------5---------|     D|-9--------5--------9--------2-------5------|

Guitar 1 (1:55-2:09)
(Start on pt.2)(It’s soft)
e|-----------0-----2-----0-----------|
B|-----3-----------------------3-----|
G|-0-2---0-2---0-2---0-2---0-2-------|[x4]
D|-----------------------------------|
A|-----------------------------------|
D|-----------------------------------|


==============================Outro=========================================


Guitar 1 (2:10-2:37)
e|-----------0-----2-----0-----------|
B|-----3-----------------------3-----|
G|-0-2---0-2---0-2---0-2---0-2-------|[x4]
D|-----------------------------------|
A|-----------------------------------|
D|-----------------------------------|


Guitar 2 (2:10-end)
(2:10-2:23)         pt.1      (2:24-end)
e|---------------------|     e|---------------------------------------------|
B|---------------------|     B|---------------------------------------------|
G|---------------------|[x2] G|---------------------------------------------|
D|-0-----------5-------|     D|-9--------5--------9--------2-------5------0-|
A|-0—[x16]-----5-[x16]-|     A|-9-[x16]--5-[x16]--9-[x16]--2-[x8]--5-[x8]-0-|
D|-0-----------5-------|     D|-9--------5--------9--------2-------5------0-|
            

comments powered by Disqus
↑ Back to top | Hit The Lights Tabs for On And On. Lyrics for acoustic guitar and electric guitar. Tablatures and chords are parodies/interpretations of the original songs. You may use it for private study, scholarship, research or language learning purposes only