» » »

Cry Your Eyes Out Tabs (ver.1)

Artists:  A B C D E F G H I J K L M N O P Q R S T U V W X Y Z # 

Cry Your Eyes Out Tabs (ver.1)

Hit The Lights
Rating:
5/5 (2 votes)

Hard to play? Try these video lessons and learn fast.
                Ahh, the usual introduction. Well this is Cry Your Eyes Out from Skip School, Start
Really great album, you should buy it if you dont have it already. Theres alot of parts to
and I went to alot of trouble tabbing this, and it wasnt easy so I'd say 93-95% accurate 
this one. It's not that the guitars are too hard, it's just Nicks' vocals get in the
sometimes... no offense to you Nick, love your voice. Anyway, enough idle digression and 
the tab!

Intro/Postchorus:
E-----------------------------------------------------------|
B-----------------------------------------------------------|
G-----------------------------------------------------------|
D--/12--0-9-7-5-0--0-0--0-0--0-9-7-5--0-0-0-0-0-0-0---------|
A--/12--0-9-7-5-0--0-0--0-0--0-9-7-5--4-4-5-5-7-7-5---------|
D--/12--0-9-7-5-0--0-0--0-0--0-9-7-5------------------------|

E-------------------------------------------------|
B-------------------------------------------------|
G-------------------------------------------------|
D--5-9-7-5-5--5-5--5-5--5-9-7-5--0-0-0-0-0-0-0-0--|
A--5-9-7-5-5--5-5--5-5--5-9-7-5--5-5-5-5-5-5-5-5--|
D--5-9-7-5-5--5-5--5-5--5-9-7-5-------------------|

E--------------------------------------------------------------------|
B--------------------------------------------------------------------|
G--------------------------------------------------------------------|
D--0-9-7-5-0--0-0--0-0--0-9-7-5--0-0-0-0-0-0-0--5-9-7-5-5--5-5--5-5--|
A--0-9-7-5-0--0-0--0-0--0-9-7-5--4-4-5-5-7-7-5--5-9-7-5-5--5-5--5-5--|
D--0-9-7-5-0--0-0--0-0--0-9-7-5-----------------5-9-7-5-5--5-5--5-5--|

Little fill before the verses:
E---------------------------------|
B---------------------------------|
G---------------------------------|
D--4h7-2h4-4h7-2h4----------------|
A---------------------------------|
D---------------------------------|

Verse (You should listen to the song while playing. It's complex):
E------------------------------------------------------|
B---------------------------8-8-8-8---8-8-8-8-8-8-8-8--|
G---------------------------7-7-7-7---7-7-7-7-7-7-7-7--|
D--0--7h9h7--0--7-7-7-9-7-5---------5------------------|
A--0--5h7h5--0--5-5-5-7-5-5---------5------------------|
D--0--0~-----0------------5---------5------------------|

E----------------------------------------|
B----8-8-8-8-----------------------------|
G----7-7-7-7-----------------------------|
D--5---------5--7--7--7--7---------------|
A--5---------5--7--7--7--7---------------|
D--5---------5--7--7--7--7---------------|

E------------------------------------------|
B-----3--3--3--3--------3--3--3--3---------|
G-----2--2--2--2--------2--2--2--2---------|
D--0------------0-5--0------------0-5------|
A--0------------0-5--0------------0-5------|
D--0------------0-5--0------------0-5------|

E-------------------------------------------|
B----8-8-8-8---8-8-8-8----------------------|
G----7-7-7-7---7-7-7-7----------------------|
D--5---------5---------5--7-7-7-7-----------|
A--5---------5---------5--7-7-7-7-----------|
D--5---------5---------5--7-7-7-7-----------|

Prechorus:
E---------------------------------------------|
B---------------------------------------------|
G---------------------------------------------|
D--5-5-7-7-7--7-7-7---0-9-7-9-9-9--7-7-7-7--4-|
A--5-5-5-5-5--5-5-5---0-9-7-7-7-7--5-5-5-5--4-|
D--5-5----------------0-9-7-----------------4-|

E----------------------------------------|
B----------------------------------------|
G----------------------------------------|
D--5-5-7-7-7--7-7-7---0-9-7-9-9-9-7-7-7--|
A--5-5-5-5-5--5-5-5---0-9-7-7-7-7-5-5-5--|
D--5-5----------------0-9-7--------------|

Chorus:
E-----------------------------------------------------------------------|
B-----------------------------------------------------------------------|
G-----------------------------------------------------------------------|
D--0-0-0-5-5-5-5-5-5-7-7-7-7-7-7-9-9-9-5-5-5-0-0-0-0-0-7-7-7-9-9-9-9-9--|
A--0-0-0-5-5-5-5-5-5-7-7-7-7-7-7-9-9-9-5-5-5-0-0-0-0-0-7-7-7-9-9-9-9-9--|
D--0-0-0-5-5-5-5-5-5-7-7-7-7-7-7-9-9-9-5-5-5-0-0-0-0-0-7-7-7-9-9-9-9-9--|

E-----------------------------------------------------------------------|
B-----------------------------------------------------------------------|
G-----------------------------------------------------------------------|
D--0-0-0-5-5-5-5-5-5-7-7-7-7-7-7-9-9-9-5-5--5-5-5--5-5-5--5-0-0--0-7-7--|
A--0-0-0-5-5-5-5-5-5-7-7-7-7-7-7-9-9-9-5-5--5-5-5--5-5-5--5-0-0--0-7-7--|
D--0-0-0-5-5-5-5-5-5-7-7-7-7-7-7-9-9-9-5-5--5-5-5--5-5-5--5-0-0--0-7-7--|

E--------------------|
B--------------------|
G--------------------|
D--7-7-7--7-7--------|
A--7-7-7--7-7--------|
D--7-7-7--7-7--------|


Verse II:
E--------------------------------------|
B--------------------------------------|
G--------------------------------------|
D--0-0-0-0-0-0-0-0-0-0-0-0-0--4p0------|
A--0-0-0-0-0-0-0-0-0-0-0-0-0-----------|
D--0-0-0-0-0-0-0-0-0-0-0-0-0-----------|
   . . . . . . . . . . . . .

E------------------------------------------------------------------|
B------8-8-8-8-----8-8-8-8-8-8-8-8-----8-8-8-8----8-8-8-8----------|
G------7-7-7-7-----7-7-7-7-7-7-7-7-----7-7-7-7----7-7-7-7----------|
D--5-5---------5-5-----------------5-5---------5-5--------7-7-7-7--|
A--5-5---------5-5-----------------5-5---------5-5--------7-7-7-7--|
D--5-5---------5-5-----------------5-5---------5-5--------7-7-7-7--|

Prechorus

Bridge (After 2nd Chorus):
E----------------------------------|-----------------------------|
B----------------------------------|-----------------------------|
G----------------------------------|-----------------------------|
D--------7---------------0-4-5-4-0-|-------7-----------7---------|
A------------9---7---0-------------|-----------9---7-----9-7-9---|
D--0-0-0---0---0---0---0-----------|-0-0-0---0---0---0-----------|
   . . .   .   .   .   .             . . .   .   .   .

E-----------------------------------|------------------------------------|
B-----------------------------------|------------------------------------|
G-----------------------------------|-------7-7-7-7-7-7-7-7-7-8-8-8-8----|
D--------7--------------------------|-------x-x-x-x-x-x-x-x-x-x-x-x-x----|
A------------9---7-------5-9h10p9-5-|-------5-5-5-5-5-5-5-5-5-6-6-6-6----|
D--5-5-5---5---5---5-7-5------------|-5-5-5------------------------------|
   . . .   .   .   .   .              . . .

The first side is a series of octave notes played during Nick's singing, as the lead,
a hard strumming pattern to tab out so you should listen to the song for it, same with the
side which is the rhythm played over this.
E--------------------|---------------------------|
B--------------------|---------------------------|
G--8------7-------10-|---------------------------|
D--x------x-------x--|-1----6----5---------------|
A--6------5-------8--|-1----6----5---------------|
D--------------------|-1----6----5---------------|
                       .    .    .
Chorus
Chorus

End on, then do the bridge.
E-----------------|
B-----------------|
G-----------------|
D--8--8-----------|
A--8--8-----------|
D--8--8-----------|

Thanks, comment and rate please, I could use the support! Thank you to the one that
this as well :)

Legend In order of appearance:

/ =Slide down from
h =Hammer On
~ =Sustain, let ring
. =Palm mute
p =Pull Off
x =Mute strings with your fretting hand
            
Hard to play? Try these video lessons and learn fast. | Correct




comments powered by Disqus
↑ Back to top | Tablatures and chords are parodies/interpretations of the original songs. You may use it for private study, scholarship, research or language learning purposes only