» » »

Vampire - Bass Adaption Bass tabs (ver.1)

Artists:  A B C D E F G H I J K L M N O P Q R S T U V W X Y Z # 

Vampire - Bass Adaption Bass tabs (ver.1)

H.I.M
Rating:
0/5 (0 votes)

Hard to play? Try these video lessons and learn fast.
                ok, heres the acoustic tabs for Vampire, just for bass. its really easy, beginners should have no problems palying it. i have played it to all my mates and they cant tell the diffeence so it must be quite accurate.

|----4-------4----|
|--4---4---4---4-|
|2-------2--------|
|------------------|

|-----------------|
|----4------4----|
|--4---4--4---4-|
|2-------2-------|

|--------------------|
|-----3---------3---|
|---3---3----3---3-|
|5--------5---------|

|---------------------|
|----4-------4-------|
|--4---4--4---4-----|
|2--------2----------|

it goes like that all the way through a far as i can see.
have fun, play hard, enjoy life!
            
Hard to play? Try these video lessons and learn fast. | Correct




comments powered by Disqus
↑ Back to top | Tablatures and chords are parodies/interpretations of the original songs. You may use it for private study, scholarship, research or language learning purposes only