» » »

H.I.M, The Path Tabs (ver.4)

Artists:  A B C D E F G H I J K L M N O P Q R S T U V W X Y Z # 

The Path Tabs (ver.4)

H.I.M Tabs
 Rating:
4/5 (4 votes)
The Path lessons Tabs too difficult? Try these video lessons and learn fast
1
                (Intro)


I saw that nobody write full intro and verse tab on this side so there it is.

Enjoy!

Intro

 F                        C
|-------------------------0-----0-------------------|-----|
|---------------------------------3-1-0------0------|-----|
|------2-----------2----------0------------0---2-0--|-x3--|
|----3---3-------3---3------2------------0----------|-----|
|--3-------3---3-------3--3-------------------------|-----|
|1-----------1------------------------3-------------|-----|

 Dm                      G
|------5-----7-----8-----7-----5-----3-----3--------|
|--------6-----6-----6-----3-----3-----3-----3------|
|----7-----7-----7-----7-----4-----4-----4-----4----|
|--7------------------------------------------------|
|5--------------------------------------------------|
|------------------------3--------------------------|

When plaing VERSE

 Am             Dm                       Am             Dm
|---------------------5-----7-----8---------------------------5-----|
|------1----------------4-----4-----4----------1------------3---3---|
|----2---2----------7-----7-----7-----7------2---2--------2-------2-|
|--2-------2------7------------------------2-------2----0-----------|
|0-----------0--5------------------------0-----------0--------------|
|-------------------------------------------------------------------|


|3-----1------|
|--3-----3----|
|----2-----2--|   And on and on
|-------------|
|-------------|
|-------------|

Full song with chords u can find on this web writed by Marios Theophanous.
            
Submit corrections

comments powered by Disqus
↑ Back to top | H.I.M Tabs for The Path. Lyrics for acoustic guitar and electric guitar. 1 Tablatures and chords are parodies/interpretations of the original songs. You may use it for private study, scholarship, research or language learning purposes only