>
 >
Rip Out The Wings Of A Butterfly 3

Rip Out The Wings Of A Butterfly 3 Guitar Tabs

H.I.M - Rip Out The Wings Of A Butterfly 3 chords, tabs, tablatures, lyrics

Guitar lessons | Add/correct | Request | Top 50 tabs Artists:  A B C D E F G H I J K L M N O P Q R S T U V W X Y Z 0-9

Rip Out The Wings Of A Butterfly 3 Guitar Tabs – H.I.M

CD, Sheet music, Poster

Do you like Rip Out The Wings Of A Butterfly 3? Share with your friends now
Bass TabsBass Tabs v2Bass Tabs v3Bass Tabs v4ChordsTabsTabs v2Tabs v3Tabs v4Tabs v5Tabs v6Ukulele
-----------------------------------------------------------------------------
                             Wings Of A Butterfly - Him
-----------------------------------------------------------------------------

Tuning: Half step down, Drop C#
 

Intro Guitar 1  
|------------------------|---------------|------------------------|
|--7---7---7---5h7p5--5--|---5---5---5---|--5---5---5---3h5p3--3--|
|------------------------|---------------|------------------------|
|----9---9---------------|-7---7---7---7-|----7---7---------------|
|------------------------|---------------|------------------------|
|------------------------|---------------|------------------------|
*Continued here*
|-----------------|
|--3---3---3--0---|
|-----------------| Play whole thing 4 times
|----5---5--------|
|-----------------|
|-----------------|

Intro guitar 2 (guitar 2 comes in after guitar 1 plays that once)
|-------------------------|
|-------------------------|
|-------------------------|
|--5-5--7~-------5-5--7~--|
|--5-5--7~-------5-5--7~--|
|--5-5--7~-------5-5--7~--|

|------------------------------------------------------------|
|------------------------------------------------------------|
|------------------------------------------------------------|
|--9-9-9-9---0-0---7-7-7-7--7-7-7-7---7-6-5---5-5-5-5---7-7--|
|--9-9-9-9---0-0---7-7-7-7--7-7-7-7---7-6-5---5-5-5-5---7-7--|
|--9-9-9-9---0-0---7-7-7-7--7-7-7-7---7-6-5---5-5-5-5---7-7--|
p.m...........................................................

|-------------------------------------------------|
|-------------------------------------------------|
|-------------------------------------------------|
|--9-9-9-9---0-0---7-7-7-7--7-7-7-7---7-6-5---5~--|
|--9-9-9-9---0-0---7-7-7-7--7-7-7-7---7-6-5---5~--|
|--9-9-9-9---0-0---7-7-7-7--7-7-7-7---7-6-5---5~--|


Vesre 1 
|----------------------------------|
|----------------------------------|
|----------------------------------|
|--3-5-5---5-3-3---3-5-3-5-7-5-3---|
|--3-5-5---5-3-3---3-5-3-5-7-5-3---|
|--3-5-5---5-3-3---3-5-3-5-7-5-3---|


|------------------------------------------|
|------------------------------------------|
|------------------------------------------|
|--3-5-5---3-3---5-3-3--3-5-3-5-7-5-3--2~--|
|--3-5-5---3-3---5-3-3--3-5-3-5-7-5-3--2~--|
|--3-5-5---3-3---5-3-3--3-5-3-5-7-5-3--2~--|

Chorus
|------------------------------------------------------------|
|------------------------------------------------------------|
|------------------------------------------------------------|
|--9-9-9-9---0-0---7-7-7-7--7-7-7-7---7-6-5---5-5-5-5---7-7--|
|--9-9-9-9---0-0---7-7-7-7--7-7-7-7---7-6-5---5-5-5-5---7-7--|
|--9-9-9-9---0-0---7-7-7-7--7-7-7-7---7-6-5---5-5-5-5---7-7--|

|-------------------------------------------------|
|-------------------------------------------------|
|-------------------------------------------------|
|--9-9-9-9---0-0---7-7-7-7--7-7-7-7---7-6-5---5~--|
|--9-9-9-9---0-0---7-7-7-7--7-7-7-7---7-6-5---5~--|
|--9-9-9-9---0-0---7-7-7-7--7-7-7-7---7-6-5---5~--|

|------------------------|---------------|------------------------|
|--7---7---7---5h7p5--5--|---5---5---5---|--5---5---5---3h5p3--3--|
|------------------------|---------------|------------------------|
|----9---9---------------|-7---7---7---7-|----7---7---------------|
|------------------------|---------------|------------------------|
|------------------------|---------------|------------------------|
*Continued here*
|-----------------|
|--3---3---3--0---|
|-----------------|
|----5---5--------|
|-----------------|
|-----------------|

Verse 2 
|----------------------------------|
|----------------------------------|
|----------------------------------|
|--3-5-5---5-3-3---3-5-3-5-7-5-3---|
|--3-5-5---5-3-3---3-5-3-5-7-5-3---|
|--3-5-5---5-3-3---3-5-3-5-7-5-3---|


|------------------------------------------|
|------------------------------------------|
|------------------------------------------|
|--3-5-5---3-3---5-3-3--3-5-3-5-7-5-3--2~--|
|--3-5-5---3-3---5-3-3--3-5-3-5-7-5-3--2~--|
|--3-5-5---3-3---5-3-3--3-5-3-5-7-5-3--2~--|

|------------------------|---------------|------------------------|
|--7---7---7---5h7p5--5--|---5---5---5---|--5---5---5---3h5p3--3--|
|------------------------|---------------|------------------------|
|----9---9---------------|-7---7---7---7-|----7---7---------------|
|------------------------|---------------|------------------------|
|------------------------|---------------|------------------------|
*Continued here*
|-----------------|
|--3---3---3--0---|
|-----------------|
|----5---5--------|
|-----------------|
|-----------------|


Bridge or Solo
|--------------------------------------------------|
|--------------------------------------------------|
|--------------------------------------------------|
|--------------------------------------------------|
|--------------------------------------------------|
|--4~--7-6-4-2---4~--7-2~--4~--7-6-4-2---4~--7-2~--|

|---------------------------------|
|---------------------------------|
|---------------------------------|
|--4~--7-6-4-2-0-2---4~--7-2~-----|X2
|--4~--7-6-4-2-0-2---4~--7-2~-----|
|--4~--7-6-4-2-0-2---4~--7-2~-----|

|------------------------|---------------|------------------------|
|--7---7---7---5h7p5--5--|---5---5---5---|--5---5---5---3h5p3--3--|
|------------------------|---------------|------------------------|
|----9---9---------------|-7---7---7---7-|----7---7---------------|
|------------------------|---------------|------------------------|
|------------------------|---------------|------------------------|
*Continued here*
|-----------------|
|--3---3---3--0---|
|-----------------| Play whole thing 4 times
|----5---5--------|
|-----------------|
|-----------------|

| .  palm mute note
| /  slide up
| \  slide down
| h  hammer-on
| p  pull-off
| ~  vibrato
| +  harmonic
| x  Mute note
=============================================================================





Comments


Popular H.I.M tabs & chords
No Love Chords
Play Dead Chords
Pretending 1 Chords
Heartkiller Tabs
I Will Be The End Of You Tabs
Vampire Heart Tabs
Vampire Heart 6 Tabs
Wicked Game 4 Tabs
My Heaven Tonight Ukulele
Under The Rose Ukulele


Song lyrics



↑ Back to top | Tablatures and chords are parodies/interpretations of the original songs. You may use it for private study, scholarship, research or language learning purposes only
© 2014 AZChords.com Contact us | Privacy policy | DMCA | Add/correct tabs | Request tabs | Top 50 tabs