>
 >
Resurrection

Resurrection Guitar Tabs

H.I.M - Resurrection chords, tabs, tablatures, lyrics

Guitar lessons | Add/correct | Request | Top 50 tabs Artists:  A B C D E F G H I J K L M N O P Q R S T U V W X Y Z 0-9

Resurrection Guitar Tabs – H.I.M

CD, Sheet music, Poster

Do you like Resurrection? Share with your friends now
Bass TabsChordsTabsUkulele
Tabulated by:  Luke "Lazy Sky" Vai  &  The Duke  
	|---| ->  Muted	


   Verse1
   KEYBOARD
E||---------|------|-----|-------|----------|-----|----|---------|
B||---------|------|-----|-------|----------|-----|----|---------|
G||---------|------|-----|-------|----------|-----|----|---------|
D||---------|------|-----|-------|----------|-----|----|---------|
A||---------|------|-----|-------|----------|-----|----|---------|
E||---------|------|-----|-------|----------|-----|----|---------|

                              
|----------------------|------------------|--------------------|
|----------------------|------------------|--------------------|
|----------------------|------------------|--------------------|
|----------------------|------------------|--2--2--------------|
|--10--10--------------|------------------|--2--2--------------|
|--8---8---------------|------------------|--0--0--------------|

                                                               
|--------------------|----------------------|------------------|
|--------------------|----------------------|------------------|
|--------------------|----------------------|------------------|
|--------------------|----------------------|------------------|
|--5--5--------------|--10--10--------------|------------------|
|--3--3--------------|--8---8---------------|------------------|

								 Chorus
							       ARPEGGIO                        
|--------------------|------------------------||---------------|
|--------------------|------------------------||---------------|
|--------------------|------------------------||*--------------|
|--------------------|------------------------||*--2-----------|
|-12--12----12--12---|--12--12------12\-------||---2-----------|
|-10--10----10--10---|--10--10------10\-------||---0-----------|


                                                             4x
|--------------------|-------------------|--------------------||
|--------------------|-------------------|--------------------||
|--------------------|-------------------|-------------------*||
|--10----------------|--5----------------|--7----------------*||
|--10----------------|--5----------------|--7-----------------||
|--8-----------------|--3----------------|--5-----------------||

  Verse2
  KEYBOARD
|---------------------------------|--------------------------------|
|---------------------------------|--------------------------------|
|*--------------------------------|--------------------------------|
|*--------------------------------|--------------------------------|
|--10--10--10--10--10--10--10--10-|-10--10--10--10--10--10--10--10-|
|--8---8---8---8---8---8---8---8--|-8---8---8---8---8---8---8---8--|
  |------------------------------| |------------------------------|

                                                      3x
|--------------------------|---------------------------||
|--------------------------|---------------------------||
|--------------------------|--------------------------*||
|--2--2--2--2--2--2--2--2--|--------------------------*||
|--2--2--2--2--2--2--2--2--|--5--5--5--5--5--5--5--5---||
|--------------------------|--3--3--3--3--3--3--3--3---||
 |------------------------| |-------------------------|

                                                                      
|--------------------------------|--------------------------------|
|--------------------------------|--------------------------------|
|--------------------------------|--------------------------------|
|--------------------------------|--------------------------------|
|-10--10--10--10--10--10--10--10-|-10--10--10--10--10--10--10--10-|
|-8---8---8---8---8---8---8---8--|-8---8---8---8---8---8---8---8--|
 |------------------------------| |------------------------------|

                                    
|----------------------------------|
|----------------------------------|
|----------------------------------|
|----------------------------------|
|--12--12--12--12--12--12--12--12--|
|--10--10--10--10--10--10--10--10--|
 |--------------------------------|


                           Chorus     
                           ARPEGGIO                                          
|----------------------||--------------------|--------------------|
|----------------------||--------------------|--------------------|
|----------------------||*-------------------|--------------------|
|----------------------||*--2----------------|--10----------------|
|--12--------12\-------||---2----------------|--10----------------|
|--10--------10\-------||---0----------------|--8-----------------|

						        Bridge
                                        4x  ARPEGGIO 
|-------------------|--------------------||--------------------|
|-------------------|--------------------||--------------------|
|-------------------|-------------------*||--------------------|
|--5----------------|--7----------------*||--2--2--------------|
|--5----------------|--7-----------------||--2--2--------------|
|--3----------------|--5-----------------||--------------------|

                                                                              
|------------|-----------|------------------|--------------------|
|------------|-----------|------------------|--------------------|
|------------|-----------|------------------|--------------------|
|------------|-----------|------------------|--2--2--------------|
|------------|-----------|------------------|--2--2--------------|
|------------|-----------|------------------|--------------------|


|------------|------------|------------------|--------------------|
|------------|------------|------------------|--------------------|
|------------|------------|------------------|--------------------|
|------------|------------|------------------|--2--2--------------|
|------------|------------|------------------|--2--2--------------|
|------------|------------|------------------|--------------------|

                                                                                
|-------------|------------|-----------|--------------------|
|-------------|------------|-----------|--------------------|
|-------------|------------|-----------|--------------------|
|-------------|--2--2------|-----------|--2--2--------------|
|-------------|--2--2------|-----------|--2--2--------------|
|-------------|------------|-----------|--------------------|

                                             
|--------------------|----------------------|
|--------------------|----------------------|
|--------------------|----------------------|
|--2--2--------------|--2--2------2--2------|
|--2--2--------------|--2--2------2--2------|
|--------------------|----------------------|
                 

               		   Chorus End
                           FINAL ARPEGGIO 
|----------------------||--------------------|--------------------|
|----------------------||--------------------|--------------------|
|----------------------||*-------------------|--------------------|
|--12--------12\-------||*--4----------------|--12----------------|
|--12--------12\-------||---4----------------|--12----------------|
|--10--------10\-------||---2----------------|--10----------------|


  FINAL KEYBOARD                        4x                        
|-------------------|--------------------||-----------------------|
|-------------------|--------------------||-----------------------|
|-------------------|-------------------*||*----------------------|
|--7----------------|--9----------------*||*----------------------|
|--7----------------|--9-----------------||---12--------12--------|
|--5----------------|--7-----------------||---10--------10--------|

                                                               3x
|-------------------|-----------------|-------------------------||
|-------------------|-----------------|-------------------------||
|-------------------|-----------------|------------------------*||
|-------------------|-----------------|------------------------*||
|--11---12----14----|--16---16--------|--19------18------14-----||
|--9----10----12----|--14---14--------|--17------16------12-----||

                                                                        
|----------------------|------------------------|----------||
|----------------------|------------------------|----------||
|----------------------|------------------------|----------||
|----------------------|------------------------|----------||
|--12--------12--------|--11------12------14----|--16--16--||
|--10--------10--------|--9-------10------12----|--14--14--||

ARPEGGIO
                                              
        
E||---------------------------|--10-----------8-----------|
B||---7-----------8-----------|------8-----------8--------|
G||*-----9-----------9--------|---------9--7--------9--7--|
D||*--------9--9--------9--9--|---------------------------|
A||---------------------------|---------------------------|
E||---------------------------|---------------------------|

                                                       4x
|-7------------------------|----------------------------||
|----8--7--8--10--8--7-----|--10--7--------8--7---------||
|-----------------------7--|---------7--7--------7--7--*||
|--------------------------|---------------------------*||
|--------------------------|----------------------------||
|--------------------------|----------------------------||FINAL ARPEGGIO

                                                                       
E||---------------------------------|-12------------10------------|
A||---9-------------10--------------|-----10------------10--------|
D||*-----11-------------11----------|---------11--9---------11--9-|
G||*---------11--11---------11--11--|-----------------------------|
B||---------------------------------|-----------------------------|
E||---------------------------------|-----------------------------|

                                                            7x
|--9---------------------------|-----------------------------||
|-----10--9--10--12--10--9-----|--12--9--------10--9---------||
|---------------------------9--|---------9--9---------9--9--*||
|------------------------------|----------------------------*||
|------------------------------|-----------------------------||
|------------------------------|-----------------------------||

                                                                    
|--------------------------------|-12------------10-------------||
|--9-------------10--------------|-----10------------10---------||
|-----11-------------11----------|---------11--9---------11--9--||
|---------11--11---------11--11--|------------------------------||
|--------------------------------|------------------------------||
|--------------------------------|------------------------------||KEYBOARD


E |-2-3-|-10-8-|-7-|-5-3-|-2-3-|-10-8-|-7-|-5-3-|-2-3-|-10-8-|-7-|
A |-1---|------|-5-|-3---|-1---|------|-5-|-3---|-1---|------|-5-|
D |-----|------|---|-----|-----|------|---|-----|-----|------|---|
G |-----|------|---|-----|-----|------|---|-----|-----|------|---|
B |-----|------|---|-----|-----|------|---|-----|-----|------|---|
E |-----|------|---|-----|-----|------|---|-----|-----|------|---|

|-5-3-|-2-3-|-10-8-|-5-|---|---|---|-3-|-2-|-7-|------|------|---|
|-3---|-1---|------|-3-|---|---|---|-3-|-3-|-5-|------|------|---|
|-----|-----|------|---|---|---|---|---|---|-4-|------|------|---|
|-----|-----|------|---|---|---|---|---|---|---|------|------|---|
|-----|-----|------|---|---|---|---|---|---|---|------|------|---|
|-----|-----|------|---|---|---|---|---|---|---|------|------|---|

|------|------|-3-|-2-|-7-|------|------|
|------|------|-3-|-3-|-5-|------|------|
|------|------|---|---|-4-|------|------|
|------|------|---|---|---|------|------|
|------|------|---|---|---|------|------|
|------|------|---|---|---|------|------|FINAL KEYBOARD


E |-5-|-4-|-9-|------|------|------|------|-5-|-4-|-9-||
B |-5-|-5-|-7-|------|------|------|------|-5-|-5-|-7-||
G |---|---|-6-|------|------|------|------|---|---|-6-||
D |---|---|---|------|------|------|------|---|---|---||
A |---|---|---|------|------|------|------|---|---|---||
E |---|---|---|------|------|------|------|---|---|---||





Comments


Popular H.I.M tabs & chords
In Joy And Sorrow 1 Tabs
Katherine Wheel Tabs
Please Don't Let It Go 2 Tabs
Rip Out The Wings Of A Butterfly Tabs
Rip Out The Wings Of A Butterfly 3 Tabs
Under The Rose Tabs
Venus Doom Tabs
Love You Like I Do Ukulele
Salt In Our Wounds Ukulele
The Sacrement Ukulele


Song lyrics



↑ Back to top | Tablatures and chords are parodies/interpretations of the original songs. You may use it for private study, scholarship, research or language learning purposes only
© 2014 AZChords.com Contact us | Privacy policy | DMCA | Add/correct tabs | Request tabs | Top 50 tabs