» » »

It's All Tears Bass tabs (ver.1)

Artists:  A B C D E F G H I J K L M N O P Q R S T U V W X Y Z # 

It's All Tears Bass tabs (ver.1)

H.I.M
Rating:
0/5 (0 votes)

Hard to play? Try these video lessons and learn fast.
                -------------------------------------------------------------------------------
			     It's All Tears (Unplugged)- HIM
-------------------------------------------------------------------------------

Band / Artist : HIM
Song title : It's All Tears (Unplugged)
 


Intro

       |-----------|-----------|-----------|-----------|-----------|-----------|--------|
       |-----------|-----------|-----------|-----------|-----------|-----------|------0-|
       |---------2-|---------2-|---------2-|---------2-|---------2-|---------2-|----2---|
       |-0-x-0-2b--|-0-x-0-2b--|-0-x-0-2b--|-0-x-0-2b--|-0-x-0-2b--|-0-x-0-2b--|-3-x----|

       |--------|-----------|-----------|----------|----------|-----------|-----------|
       |-0-0-0--|-----------|-----------|--------0-|-0-0-0----|-----------|-----------|
       |------2-|---------2-|---------2-|-------2--|--------2-|---------2-|---------2-|
       |--x-----|-0-x-0-2b--|-0-x-0-2b--|-3-x-3----|--x-------|-0-x-0-2b--|-0-x-0-2b--|

       |----------|--------|-----------|-----------|-----------|----------|-----------|
       |--------0-|-0-0-0--|-----------|-----------|---------0-|-0-0-0----|-----------|
       |------2---|------2-|---------2-|---------2-|--------2--|-------2--|---------2-|
       |-3-x-3----|--x-----|-0-x-0-2b--|-0-x-0-2b--|-3-x-3-----|--x-------|-0-x-0-2b--|

       |-----------|-----------|-----------|---------|
       |-----------|-----------|-----------|----0-0--|
       |---------2-|---------2-|---------2-|-------2-|
       |-0-x-0-2b--|-0-x-0-2b--|0-x-0-3-3--|-2-x-----|

Verse 1
    
      /|-----------|-----------|---------|---------|
 4x  / |-----------|-----------|-------0-|----0-0--|
     \ |---------2-|---------2-|------2--|-------2-| 
      \|-0-x-0-2b--|-0-x-0-2b--|-3-x-3---|-2-x-----|


Chours

     / |-----------|-----------|---------|--------|
 4x /  |-----------|-----------|-------0-|-0-0-0--|
    \  |---------2-|---------2-|------2--|------2-|
     \ |-0-x-0-2b--|-0-x-0-2b--|-3-x-3---|---x----|

       |-----------|-----------|-----------|------------|
       |-----------|-----------|-----------|------------|
       |---------2-|---------2-|---------2-|----------2-|
       |-0-x-0-2b--|-0-x-0-2b--|-0-x-0-2b--|-0-x-0-3-3--|



Verse 2
   
      /|-----------|-----------|---------|---------|
 4x  / |-----------|-----------|-------0-|----0-0--|
     \ |---------2-|---------2-|------2--|-------2-| 
      \|-0-x-0-2b--|-0-x-0-2b--|-3-x-3---|-2-x-----|


Chours

     / |-----------|-----------|---------|--------|
 4x /  |-----------|-----------|-------0-|-0-0-0--|
    \  |---------2-|---------2-|------2--|------2-|
     \ |-0-x-0-2b--|-0-x-0-2b--|-3-x-3---|---x----|

       |-----------|-----------|-----------|------------|
       |-----------|-----------|-----------|------------|
       |---------2-|---------2-|---------2-|----------2-|
       |-0-x-0-2b--|-0-x-0-2b--|-0-x-0-2b--|-0-x-0-3-3--|

Guitar solo


       |---------|---------|-------------|--------|-------------|--------|
       |-----0-0-|------0--|--0-0-0-0----|--0-----|--0-0-0-0----|--0-----|
       |---------|-4-2-4-2-|-2---2---4-2-|-4-2-2--|-2---2---4-2-|-4-2-2--|
       |-2--2----|---------|-------------|--------|-------------|--------|

       |-------------|--------|-------------|--------|
       |--0-0-0-0----|--0-----|--0-0-0-0----|--0-----|
       |-2---2---4-2-|-4-2-2--|-2---2---4-2-|-4-2-2--|
       |-------------|--------|-------------|--------|
 

Chours

     / |-----------|-----------|---------|--------|
 4x /  |-----------|-----------|-------0-|-0-0-0--|
    \  |---------2-|---------2-|------2--|------2-|
     \ |-0-x-0-2b--|-0-x-0-2b--|-3-x-3---|---x----|

       |-----------|-----------|-----------|------------|
       |-----------|-----------|-----------|------------|
       |---------2-|---------2-|---------2-|----------2-|
       |-0-x-0-2b--|-0-x-0-2b--|-0-x-0-2b--|-0-x-0-3-3--|

Outro

     / |-----------|-----------|---------|--------|
 3x /  |-----------|-----------|-------0-|-0-0-0--|
    \  |---------2-|---------2-|------2--|------2-|
     \ |-0-x-0-2b--|-0-x-0-2b--|-3-x-3---|---x----|
 
       |-----------|-----------|-----------|
       |-----------|-----------|------0----|
       |---------2-|---------2-|-----------|
       |-0-x-0-2b--|-0-x-0-2b--|-3---------|

  
            
Hard to play? Try these video lessons and learn fast. | Correct




comments powered by Disqus
↑ Back to top | Tablatures and chords are parodies/interpretations of the original songs. You may use it for private study, scholarship, research or language learning purposes only