» » »

H.I.M, Dark Secret Love Tabs (ver.1)

Artists:  A B C D E F G H I J K L M N O P Q R S T U V W X Y Z # 

Dark Secret Love Tabs (ver.1)

H.I.M Tabs
 Rating:
4/5 (4 votes)
Dark Secret Love lessons Tabs too difficult? Try these video lessons and learn fast
1
                ~HIM~
Join Me (Single)
Tuning: Standard

My first tab ever... yay for me. 
Pretty sure this is 100% correct, but there's no other tab of this anywhere that I know of. 

Enjoy!

. . . . = Palm Muting
* = Pinch Harmonic (Screamer)
br = Bend\Release
/ = Slide
~ = Vibrato

Intro (clean)

{x15}
E|---------------|
B|---------------|
G|--------0------|
D|-----------4---|
A|-----2---------|
E|3-3------------|

Main\Chorus Riff (metal distortion)
               {x4}               . . . . . . .     {play 1st 3 times}
E|------------|-------------------------------------|-----------|
B|------------|-------------------------------------|-----------|
G|------------|4--5--5/7--5---4---5-5-5-5-5-5-5-5---|-----------|
D|------5--4--|4--5--5/7--5---4---5-5-5-5-5-5-5-5---|-----------|
A|---2--------|2--3--3/5--3---2---3-3-3-3-3-3-3-3---|5*--5*br---|
E|3-----------|-------------------------------------|-----------|

Verse Riff 1 (metal distortion)

-Lead Guitar-v {x16} v-Rythym Guitar-
  . .  .  .  .       . . . . . . . .
E|---------------||R|---------------------|
B|---------------||E|---------------------|
G|---------------||S|---------------------|
D|--------5--4---||T|5-5-5-5-5-5-5-5------|
A|-----2---------||1|5-5-5-5-5-5-5-5------|
E|3-3------------||M|3-3-3-3-3-3-3-3------|

Verse Riff 2

[accent palm muting]
     . .      . . .      .     . . . {x3}
E|------------------------------------|
B|------------------------------------|
G|------------------------------------|
D|2--2-2--2---2-2-2--5/7----2--2-2-2--|
A|2--2-2--2---2-2-2--5/7----2--2-2-2--|
E|0--0-0--0---0-0-0--3/5-0--0--0-0-0--|
         . .        .      . . . .   .  
E|--------------------------------------|
B|--------------------------------------|
G|2-------------------------------------|
D|2--5--4-4----------------4-4-5-4--2--2|
A|0--5--4-4----------------4-4-5-4--2--2|
E|---3--2-2----5*~--0-3*~--2-2-3-2--0--0|

Interlude

                          {x2}
E|------|------------------------------------|
B|------|------------------------------------|
G|2--2--|------------------------------------|
D|2--2--|2br--5--2-2br--5--2-2br--5--2-2br--5|
A|0--0--|------------------------------------|
E|------|------------------------------------|

                          {x2}
E|------|------------------------------------|
B|------|------------------------------------|
G|------|------------------------------------|
D|2--2--|------------------------------------|
A|2--2--|2br--5--2-2br--5--2-2br--5--2-2br--5|
E|0--0--|------------------------------------|

E|------|------------------------------------|
B|------|------------------------------------|
G|2--2--|------------------------------------|
D|2--2--|2br--5--2-2br--5--2-2br--5--2-2br--5|
A|0--0--|------------------------------------|
E|------|------------------------------------|
                                     . . . . .
E|------|---------------------------------------|
B|------|---------------------------------------|
G|------|---------------------------------------|
D|2--2--|----------------------------2-2-2-2-2-5|
A|2--2--|2br--5--2-2br--5--2-2br--5--2-2-2-2-2-5|
E|0--0--|----------------------------0-0-0-0-0-3|

ORDER:

1) Into Riff
2) Chorus\Main Riff
3) Verse 1 Riff
4) Chorus\Main Riff
5) Verse 2 Riff
6) Interlude
7) Chorus\Main Riff
[SPEED UP]
8) Verse 2 Riff {x4} <-fade out on 4th time]
            
Submit corrections

comments powered by Disqus
↑ Back to top | H.I.M Tabs for Dark Secret Love. Lyrics for acoustic guitar and electric guitar. 1 Tablatures and chords are parodies/interpretations of the original songs. You may use it for private study, scholarship, research or language learning purposes only