>
 >
Dark Light

Dark Light Bass Tabs

H.I.M - Dark Light chords, tabs, tablatures, lyrics

Guitar lessons | Add/correct | Request | Top 50 tabs Artists:  A B C D E F G H I J K L M N O P Q R S T U V W X Y Z 0-9

Dark Light Bass Tabs – H.I.M

CD, Sheet music, Poster

Do you like Dark Light? Share with your friends now
Bass TabsChordsTabsUkulele
#------------------------------------------------------------------------------##

                              DARK LIGHT (Bassline)
                               As recorded by HIM
                        (From the 2005 Album DARK LIGHT)

Words and Music by Ville Valo

Gtr I (B E A D) - 'Untitled'
Gtr II (E A D G B E) - 'Untitled'

 Intro
  Q=80
 1/4    4/4
  Gtr I
  Q      S S S S S S S S S S S S S S S S   S S S S S S S S S S S S S S S S
|----||----------------------------------|---------------------------------|
|----||o---------------------------------|---------------------------------|
|----||o-5-5-5-5-5-5-5-5-5-5-5-5-5-5-5-5-|-5-5-5-5-5-5-5-5-5-5-5-5-5-5-5-5-|
|----||----------------------------------|---------------------------------|


  S S S S S S S S S S S S S S S S   S S S S S S S S S S S S S S S S
|---------------------------------|-----------------------------------||
|---------------------------------|----------------------------------o||
|---------------------------------|----------------------------------o||
|-7-7-7-7-7-7-7-7-7-7-7-7-7-7-7-7-|-7-7-7-7-7-7-7-7-7-7-7-7-7-7-7-7---||


   Verse
    S S S S S S S S S S S S S S S S   S S S S S S S S S S S S S S S S
||----------------------------------|----------------------------------||
||o---------------------------------|---------------------------------o||
||o-5-5-5-5-5-5-5-5-5-5-5-5-5-5-5-5-|-2-2-2-2-2-2-2-2-2-2-2-2-2-2-2-2-o||
||----------------------------------|----------------------------------||
|
|   Gtr II
|   W                                 W
||--0-------------------------------|-4--------------------------------||
||o-5-------------------------------|-9-------------------------------o||
||--2-------------------------------|-6--------------------------------||
||----------------------------------|----------------------------------||
||o---------------------------------|---------------------------------o||
||----------------------------------|----------------------------------||


 Pre-Chorus
  E. E. E +H       E. E. E. S S S S E.   E. E. E +H       +W
|----------------|---------------------|----------------|--------|
|----------------|---------------------|----------------|--------|
|----------------|-5--5----------------|----------------|--------|
|-3--3--5-(5)----|-------3--3-3-3-3-2--|-3--3--5-(5)----|-(5)----|


   Chorus
    S S S S S S S S S S S S S S S S   S S S S S S S S S S S S S S S S
||----------------------------------|---------------------------------|
||o---------------------------------|---------------------------------|
||o-5-5-5-5-5-5-5-5-5-5-5-5-5-5-5-5-|-5-5-5-5-5-5-5-5-5-5-5-5-5-5-5-5-|
||----------------------------------|---------------------------------|


  S S S S S S S S S S S S S S S S   S S S S S S S S S S S S S S S S
|---------------------------------|-----------------------------------||
|---------------------------------|----------------------------------o||
|---------------------------------|----------------------------------o||
|-7-7-7-7-7-7-7-7-7-7-7-7-7-7-7-7-|-7-7-7-7-7-7-7-7-7-7-7-7-7-7-7-7---||


   Verse
    S S S S S S S S S S S S S S S S   S S S S S S S S S S S S S S S S
||----------------------------------|----------------------------------||
||o---------------------------------|---------------------------------o||
||o-5-5-5-5-5-5-5-5-5-5-5-5-5-5-5-5-|-2-2-2-2-2-2-2-2-2-2-2-2-2-2-2-2-o||
||----------------------------------|----------------------------------||
|
|   Gtr II
|   W                                 W
||--0-------------------------------|-4--------------------------------||
||o-5-------------------------------|-9-------------------------------o||
||--2-------------------------------|-6--------------------------------||
||----------------------------------|----------------------------------||
||o---------------------------------|---------------------------------o||
||----------------------------------|----------------------------------||


 Pre-Chorus
  E. E. E +H       E. E. E. S S S S E.   E. E. E +H
|----------------|---------------------|----------------|
|----------------|---------------------|----------------|
|----------------|-5--5----------------|----------------|
|-3--3--5-(5)----|-------3--3-3-3-3-2--|-3--3--5-(5)----|


   Chorus
    S S S S S S S S S S S S S S S S   S S S S S S S S S S S S S S S S
||----------------------------------|---------------------------------|
||o---------------------------------|---------------------------------|
||o-5-5-5-5-5-5-5-5-5-5-5-5-5-5-5-5-|-5-5-5-5-5-5-5-5-5-5-5-5-5-5-5-5-|
||----------------------------------|---------------------------------|


  S S S S S S S S S S S S S S S S   S S S S S S S S S S S S S S S S
|---------------------------------|-----------------------------------||
|---------------------------------|----------------------------------o||
|---------------------------------|----------------------------------o||
|-7-7-7-7-7-7-7-7-7-7-7-7-7-7-7-7-|-7-7-7-7-7-7-7-7-7-7-7-7-7-7-7-7---||


 Breakdown
  W          W          W          W          E. E. E. +Q   E.
|----------|----------|----------|----------|--------------------|
|----------|----------|----------|----------|--------------------|
|----------|----------|----------|----------|-3--3--5--(5)--1----|
|-6--------|----------|----------|----------|--------------------|


  E. S S S E. S S S S E.   E. S S S E. T T S S T T S E
|----0-2-0-2--0-2-0-2-0--|----0-2-0-2--4h5p4---4h5p4---|
|------------------------|-------------------5-------5-|
|-0----------------------|-0---------------------------|
|------------------------|-----------------------------|


  E. S S S E. S S S S E.   E. E. E. +Q   E.
|----0-2-0-2--0-2-0-2-0--|--------------------|
|------------------------|--------------------|
|-0----------------------|-3--3--5--(5)--1----|
|------------------------|--------------------|


  E.  E. E. +Q   E.   E.  E. E +H       +W
|-------------------|-----------------|--------|
|-------------------|-----------------|--------|
|-3--/7--5--(5)--1--|-3--/7--5-(5)----|-(5)----|
|-------------------|-----------------|--------|


   Out-Chorus
    S S S S S S S S S S S S S S S S   S S S S S S S S S S S S S S S S
||----------------------------------|---------------------------------|
||o---------------------------------|---------------------------------|
||o-7-7-7-7-7-7-7-7-7-7-7-7-7-7-7-7-|-7-7-7-7-7-7-7-7-7-7-7-7-7-7-7-7-|
||----------------------------------|---------------------------------|


  S S S S S S S S S S S S S S S S   S S S S S S S S S S S S S S S S   4x
|---------------------------------|-----------------------------------||
|---------------------------------|----------------------------------o||
|-4-4-4-4-4-4-4-4-4-4-4-4-4-4-4-4-|-4-4-4-4-4-4-4-4-4-4-4-4-4-4-4-4--o||
|---------------------------------|-----------------------------------||


 Outro
  W            S S S S S S S S S S S S S S S S
|----------||----------------------------------|
|----------||o---------------------------------|
|-3--------||o-4-4-4-4-4-4-4-4-4-4-4-4-4-4-4-4-|
|----------||----------------------------------|


  S S S S S S S S S S S S S S S S
|----------------------------------|
|----------------------------------|
|-4-4-4-4-4-4-4-4-4-4-4-4-4-4-4-4--|
|----------------------------------|


  S S S S S S S S S S S S S S S S   S S S S S S S S S S S S S S S S
|---------------------------------|-----------------------------------||
|---------------------------------|----------------------------------o||
|-3-3-3-3-3-3-3-3-3-3-3-3-3-3-3-3-|-3-3-3-3-3-3-3-3-3-3-3-3-3-3-3-3--o||
|---------------------------------|-----------------------------------||


  W          +W           +W           +W
|----------|------------|------------|--------*|
|----------|------------|------------|--------*|
|-4--------|-(4)--------|-(4)--------|-(4)----*|
|----------|------------|------------|--------*|


Duration Legend
---------------
W - whole; H - half; Q - quarter; E - 8th; S - 16th; T - 32nd; X - 64th; a - acciaccatura
+ - note tied to previous; . - note dotted; .. - note double dotted
Uncapitalized letters represent notes that are staccato (1/2 duration)
Irregular groupings are notated above the duration line
Duration letters will always appear directly above the note/fret number it represents the
duration for.  Duration letters with no fret number below them represent rests.  Multi-
bar rests are notated in the form Wxn, where n is the number of bars to rest for.  Low
melody durations appear below the staff

Tablature Legend
----------------
 h   - hammer-on
 p   - pull-off
 b   - bend
 pb  - pre-bend
 r   - bend release (if no number after the r, then release immediately)
 /\  - slide into or out of (from/to "nowhere")
 s   - legato slide
 S   - shift slide
  - natural harmonic
[n]  - artificial harmonic
n(n) - tapped harmonic
 ~   - vibrato
 tr  - trill
 T   - tap
 TP  - trem. picking
 PM  - palm muting
\n/  - tremolo bar dip; n = amount to dip
 \n  - tremolo bar down
 n/  - tremolo bar up
/n\  - tremolo bar inverted dip
 =   - hold bend; also acts as connecting device for hammers/pulls
 <>  - volume swell (louder/softer)
 x   - on rhythm slash represents muted slash
 o   - on rhythm slash represents single note slash

Misc Legend
-----------
 |  - bar
||  - double bar
||o - repeat start
o|| - repeat end
*|  - double bar (ending)
 :  - bar (freetime)
 $  - Segno
 &  - Coda
Tempo markers -  = BPM(8/16=s8/s16), where s8 = swing 8ths, s16 = swing 16ths





Comments


Popular H.I.M tabs & chords
Wicked Game Bass Tabs
For You 2 Chords
Right Here In My Arms Drum Tabs
Bleed Well 1 Tabs
Drunk On Shadows Tabs
Killing Loneliness 1 Tabs
Lose You Tonight 3 Tabs
Razorblade Kiss (Solo) Tabs
Solitary Man Tabs
Your Sweet 666 1 Tabs


Song lyrics



↑ Back to top | Tablatures and chords are parodies/interpretations of the original songs. You may use it for private study, scholarship, research or language learning purposes only
© 2014 AZChords.com Contact us | Privacy policy | DMCA | Add/correct tabs | Request tabs | Top 50 tabs