» » »

I Will Exalt You Tabs (ver.1)

Artists:  A B C D E F G H I J K L M N O P Q R S T U V W X Y Z # 

I Will Exalt You Tabs (ver.1)

Hillsongs
Rating:
0/5 (0 votes)

Hard to play? Try these video lessons and learn fast.
                Tuning: Standard




Intro and verses:

e|---------------------------------------------------------------------------|
B|--------7--9--------------7--9-------------7--9----------------------------|
G|--6--8-------------6--8-------------6--8-----------6/8-6-6-4---------------|
D|---------------------------------------------------------------------------|
A|---------------------------------------------------------------------------|
E|---------------------------------------------------------------------------|


Instrumental:

e|---------------------------------------------------------------------------|
B|---7--7--------------------------------------------------------------------|
G|----------8---6h8p6---------(x3)----------6/8-6-6-4------------------------|
D|---------------------6-----------------------------------------------------|
A|---------------------------------------------------------------------------|
E|---------------------------------------------------------------------------|





************************************

| /   slide up
| \   slide down
| h   hammer-on
| p   pull-off
| ~   vibrato
| +   harmonic
| x   Mute note
| b   Bend
| pb  Pre-bend
| br  Bend release
| pbr Pre-bend release
| brb Bend release bend

************************************
            
Hard to play? Try these video lessons and learn fast. | Correct




comments powered by Disqus
↑ Back to top | Tablatures and chords are parodies/interpretations of the original songs. You may use it for private study, scholarship, research or language learning purposes only