>
 >
Here In My Life

Here In My Life Bass Tabs

Hillsongs - Here In My Life chords, tabs, tablatures, lyrics

Guitar lessons | Add/correct | Request | Top 50 tabs Artists:  A B C D E F G H I J K L M N O P Q R S T U V W X Y Z 0-9

Here In My Life Bass Tabs – Hillsongs

CD, Sheet music, Poster

Do you like Here In My Life? Share with your friends now
Bass TabsChordsChords v2Chords v3Chords v4TabsUkulele
Verse 1
0:26-0:46
G|----------------|-----------------|----------------|----------------|
D|----------------|-----------------|----------------|----------------|
A|14--------------|-----------------|14--------------|----------------|
E|----------------|12---------------|----------------|12--------------|

0:46-0:52
G|----------------|-----------------|----------------|----------------|
D|----------------|-----------------|----------------|----------------|
A|11--------------|-----------------|----------------|----------------|
E|----------------|12---------------|----------------|----------------|

Pre-chorus
0:52-1:18
G|----------------|-----------------|----------------|----------------|
D|----------------|-----------------|----------------|----------------|
A|----------------|-----------------|14--------------|14--------------|
E|14--------------|12---------------|----------------|----------------|

G|----------------|-----------------|----------------|----------------|
D|----------------|-----------------|----------------|----------------|
A|----------------|-----------------|11--------------|----------------|
E|14--------------|12---------------|----------------|12--------------|

First chorus silent

Verse 2
1:48-2:14
G|----------------|-----------------|----------------|----------------|
D|----------------|-----------------|----------------|----------------|
A|2-------1-2-----|-----------------|----------------|----------------|
E|----------------|0---------0------|4--------2-4----|0----------0-2-4|

G|----------------|-----------------|----------------|----------------|
D|----------------|-----------------|----------------|----------------|
A|2-------1-2-----|-----------------|----------------|----------------|
E|----------------|0---------0------|4--------2-4----|0---------------|

Pre-chorus
2:14-2:41
G|----------------|-----------------|----------------|----------------|
D|----------------|-----------------|----------------|----------------|
A|----------------|-----------------|2--------1-2----|2---------1-2---|
E|2-------0-2-----|0---------0-0----|----------------|----------------|

G|----------------|-----------------|----------------|----------------|
D|----------------|-----------------|----------------|----------------|
A|----------------|-----------------|11--------------|----------------|
E|2-------0-2-----|0---------0-0----|4-4-4-4-4-4-4-4-|0-0-0-0-0-0-0-0-|

Chorus
2:41-3:34
G|----------------|-----------------|----------------|----------------|
D|----------------|-----------------|----------------|----------------|
A|2-2----2-2------|--------------2--|4-4-----4-4-----|----------------|
E|----------------|2-2----2-2---2-2-|----------------|0-0----0-0------|

G|----------------|-----------------|----------------|----------------|
D|----------------|-----------------|----------------|----------------|
A|2-2----2-2------|---------------2\|4-4-4-4-4-4-4-4-|7-7-7-7-7-7-7-7-|
E|----------------|2-2----2-2-------|----------------|----------------|

G|----------------|-----------------|----------------|----------------|
D|----------------|-----------------|----------------|----------------|
A|2-2----2-2------|--------------2--|4-4-----4-4-----|----------------|
E|----------------|2-2----2-2---2-2-|----------------|0-0----0-0------|

G|----------------|-----------------|----------------|----------------|
D|----------------|-----------------|----------------|----------------|
A|2-2----2-2------|---------------2\|4-4-4-4-4-4-4-4-|7-7-7-7-7-7-7-7-|
E|----------------|2-2----2-2-------|----------------|----------------|

Bridge
3:48-4:40
G|----------------|-----------------|----------------|----------------|
D|----------------|-----------------|----------------|----------------|
A|----------------|-----------------|11-11-11-11-11--|7-7-7-7-7-7-7-7-|
E|----------------|-----------------|----------------|----------------|x3

G|----------------|-----------------|-----------------|----------------|
D|----888-9-9-----|-----888--9-9----|-----------------|----------------|
A|7-----------9-9-|9-------------9-9|11-11-11911-11911|7777777777777777|
E|----------------|-----------------|-----------------|----------------|

Chorus
G|----------------|-----------------|----------------|----------------|
D|----------------|-----------------|----------------|----------------|
A|2-2----2-2------|--------------2--|4-4-----4-4-----|----------------|
E|----------------|2-2----2-2---2-2-|----------------|0-0----0-0------|

G|----------------|-----------------|----------------|----------------|
D|----------------|-----------------|----------------|----------------|
A|2-2----2-2------|---------------2\|4-4-4-4-4-4-4-4-|7-7-7-7-7-7-7-7-|
E|----------------|2-2----2-2-------|----------------|----------------|

G|----------------|-----------------|----------------|----------------|
D|----------------|-----------------|----------------|-------2--------|
A|2-2----2-2------|--------------2--|4-4-----4-4-----|---------4-2----|
E|----------------|2-2----2-2---2-2-|----------------|0-0----------4-2|

G|----------------|-----------------|----------------|----------------|
D|----------------|-----------------|----------------|----------------|
A|2-2----2-2------|---------------2\|4-4-4-4-4-4-4-4-|7---------------|
E|----------------|2-2----2-2-------|----------------|----------------|





Comments


Popular Hillsongs tabs & chords
Are You Washed In The Blood Chords
Cornerstone 5 Chords
King Of All Days Chords
Only One Chords
Saviour King 2 Chords
You 1 Chords
Break Free Intro 1 Tabs
Open My Eyes Tabs
Amazing Love Ukulele
Cornerstone Ukulele


Song lyrics



↑ Back to top | Tablatures and chords are parodies/interpretations of the original songs. You may use it for private study, scholarship, research or language learning purposes only
© 2014 AZChords.com Contact us | Privacy policy | DMCA | Add/correct tabs | Request tabs | Top 50 tabs