» » »

Hillsongs, Here In My Life Tabs (ver.1)

Artists:  A B C D E F G H I J K L M N O P Q R S T U V W X Y Z # 

Here In My Life Tabs (ver.1)

Hillsongs Tabs
 Rating:
4/5 (4 votes)
Here In My Life lessons Tabs too difficult? Try these video lessons and learn fast
1
                -------------------------------------------------------------------------------
                             Here In My Life - Hillsong
-------------------------------------------------------------------------------

Tuning:standard



Intro:

e|---------14---------------------14---------------------14------------------|
B|--------------14---16----------------14---16----------------14---16--------|
G|-11-13------------------15-13------------------16-13------------------13---|
D|---------------------------------------------------------------------------|
A|---------------------------------------------------------------------------|
E|---------------------------------------------------------------------------|


Verse:

e|---r11-----11----|    |---7--r7--|
B|--r12---------12-|    |------r0--|
G|-r13----13-------|3x  |-9----r9--|
D|-----------------|    |----------|
A|-----------------|    |----------|
E|-----------------|    |----------|

e|---r11-----11----|    |---7--r7--|
B|--r12---------12-|    |------r0--|
G|-r13----13-------|3x  |-9----r9--|
D|-----------------|    |----------|
A|-----------------|    |----------|
E|-----------------|    |----------|


Pre-Chorus:

e|------------------------------------------------------6--7---|
B|-------11----11-----11--12-----12-----------12---------------|
G|-11-13-----13-----13--------9-----9-8h9s11------8------------|
D|-------------------------------------------------9/11--------|
A|-------------------------------------------------------------|
E|-------------------------------------------------------------|

e|-----------------------------------------------0-|
B|-------11----11-----11--12-----12----------12--0-|
G|-11-13-----13-----13--------9-----9-8h9s11-----9-|
D|-----------------------------------------------9-|
A|-----------------------------------------------7-|
E|-------------------------------------------------|

Chorus:
e|------9~-------9~--------11~-------11~--|
B|-12-------11--------12--------12--------|
G|----11-------11--------9---------9------|2x
D|----------------------------------------|
A|----------------------------------------|
E|----------------------------------------|

These are the parts I used... hope it helped...


************************************

| /   slide up
| \   slide down
| h   hammer-on
| p   pull-off
| ~   vibrato
| +   harmonic
| x   Mute note
| b   Bend
| pb  Pre-bend
| br  Bend release
| pbr Pre-bend release
| brb Bend release bend
| r   Rake

************************************
            
Submit corrections

comments powered by Disqus
↑ Back to top | Hillsongs Tabs for Here In My Life. Lyrics for acoustic guitar and electric guitar. 1 Tablatures and chords are parodies/interpretations of the original songs. You may use it for private study, scholarship, research or language learning purposes only