» » »

Hillsongs, Break Free Bass tabs (ver.1)

Artists:  A B C D E F G H I J K L M N O P Q R S T U V W X Y Z # 

Break Free Bass tabs (ver.1)

Hillsongs Tabs
 Rating:
4/5 (4 votes)
Break Free lessons Tabs too difficult? Try these video lessons and learn fast
1
                -------------------------------------------------------------------------------
			    Break Free- Hillsongs (United version)
-------------------------------------------------------------------------------


Tuning: Standard
(no bass for the first verse and the pre-chorus)

Verse II:
G|---------------------------------------------------------------------------|
D|--------------4-2-------4-4-2-2--------------------------------------------|
A|--------------------------------5-5-5-0-5-5--5-5-5-------------------------|
E|2/7\--2-2-2-2-----2-2-2----------------------------5-5-4-4-----------------|

G|---------------------------------------------------------------------------|
D|--------4-2-------4-4-2-2--------------------7-7-6-6-----------------------|
A|--------------------------5-5-5-0-5-5--5-5-5-------------------------------|
E|2-2-2-2-----2-2-2----------------------------------------------------------|

Pre-Chorus:
G|---------------------------------------------------------------------------|
D|----2-4-----2-4-----2------------------------------------------------------|
A|----------------------5-5--5-5--5-5--5-5-----------------------------------|
E|2-2-----2-2-----2-2--------------------------------------------------------|

G|---------------------------------------------------------------------------|
D|----2-4-----2-4-----2------------------------------------------------------|
A|----------------------5-5-5-5-5-5-5-5--------------------------------------|
E|2-2-----2-2-----2-2--------------------------------------------------------|

Chorus:
G|---------------------------------------------------------------------------|
D|---------------------------------------------------------------------------|
A|0-0-0-0-0-0-0-0-5-5-5-5-5-5-7-7-----------------5-5-5-5-5-5-5-5\0----------|
E|--------------------------------2-2-2-2-2-2-2-2----------------------------|

Verse III:
G|---------------------------------------------------------------------------|
D|--------4-2-------4-4-2-2--------------------------------------------------|
A|--------------------------5-5-5-0-5-5--5-5-5-------------------------------|
E|2-2-2-2-----2-2-2-----------------------------5-5-4-4----------------------|

G|---------------------------------------------------------------------------|
D|--------4-2-------4-4-2-2--------------------7-7-6-6-----------------------|
A|--------------------------5-5-5-0-5-5--5-5-5-------------------------------|
E|2-2-2-2-----2-2-2----------------------------------------------------------|

Pre-chorus:
G|---------------------------------------------------------------------------|
D|----2-4-----2-4-----2------------------------------------------------------|
A|----------------------5-5--5-5--5-5--5-5-----------------------------------|
E|2-2-----2-2-----2-2--------------------------------------------------------|

G|---------------------------------------------------------------------------|
D|----2-4-----2-4-----2------------------------------------------------------|
A|----------------------5-5-5-5-5-5-5-5--------------------------------------|
E|2-2-----2-2-----2-2--------------------------------------------------------|

Chorus:
G|---------------------------------------------------------------------------|
D|---------------------------------------------------------------------------|
A|0-0-0-0-0-0-0-0-5-5-5-5-5-5-7-7-----------------5-5-5-5-5-5-5-5------------|
E|--------------------------------2-2-2-2-2-2-2-2----------------------------|

Bridge:
G|---------------------------------------------------------------------------|
D|---------------------------------------------------------------------------|
A|3/7-7-7-7-9-9-9-9-5-5-5-5-5-5-5-5------------------------------------------|
E|---------------------------------------------------------------------------|
do that for two, and if you want the stuff Tennikoff adds then play
G|---------------------------------------------------------------------------|
D|---------------------------------------------------------------------------|
A|7-7-7-12-12-12-11-11-9-9-9-12-12-12-7-7-5-5-5-5-5-5-5-5--------------------|
E|---------------------------------------------------------------------------|

Bass Solo:
G|---------------------------------------------------------------------------|
D|--------4-4-2-2-------4-4-2-2----------------------------------------------|
A|------------------------------2-2-2-0-2-2--2-2-2-5-5-4-4-------------------|
E|2-2-2-2---------2-2-2------------------------------------------------------|

Special Pre-Chorus:
G|---------------------------------------------------------------------------|
D|----2-4-----2-4-----2------------------------------------------------------|
A|----------------------2-2-2-0-2-2--2-2-2-5-5-4-4---------------------------|
E|2-2-----2-2-----2-2--------------------------------------------------------|
do that for four.


Chorus:
G|---------------------------------------------------------------------------|
D|---------------------------------------------------------------------------|
A|0-0-0-0-0-0-0-0-5-5-5-5-5-5-7-7-----------------5-5-5-5-5-5-5-5------------|
E|--------------------------------2-2-2-2-2-2-2-2----------------------------|

Outro:
G|------------------------------------------------------------------------------------|
D|--------4-2-------4-4-2-2-----------------------------------------------------------|
A|------------------------------------------------------------------------------------|
E|2-2-2-2-----2-2-2-------------------------------------------------------------------|

| /  slide up
| \  slide down
| h  hammer-on
| p  pull-off
| ~  vibrato
| +  harmonic
| x  Mute note
===============================================================================
            
Submit corrections

comments powered by Disqus
↑ Back to top | Hillsongs Bass for Break Free. Lyrics for acoustic guitar and electric guitar. 1 Tablatures and chords are parodies/interpretations of the original songs. You may use it for private study, scholarship, research or language learning purposes only