» » »

Break Free Tabs (ver.2)

Artists:  A B C D E F G H I J K L M N O P Q R S T U V W X Y Z # 

Break Free Tabs (ver.2)

Hillsongs
Rating:
0/5 (0 votes)

Hard to play? Try these video lessons and learn fast.
                this is another great song by hillsong. it can be tricky, but once you getting the 
muting, its pretty easy.

Intro+Verse 1

e|--------------------------------xxx---------------|
B|--------------------------------xxx---------------|
G|--------------------------------xxx---------------|
D|--------------------------------xxx---------------|
A|---------------------00-4-0-4-6-xxx--0-4-0-4-6----|
E|-2222-2222-2222-2222------------xxx---------------| x4

Pre-chorus

e|-----------------------------------------------------|
B|-----------------------------------------------------|
G|-----------------------------------------------------|
D|-------------------------4444-6--44--66/-------------|
A|-------------------------5555-5--55--55/-------------|
E|-22-2*-2*--22-2*-2*-2222-----------------------------|

Verse 2

e|--------------------------------xx-xx-x--------------|
B|--------------------------------xx-xx-x--------------|
G|--------------------------------xx-xx-x--------------|
D|--------------------------------xx-xx-x--------------|
A|---------------------00-4-0-4-6-xx-xx-x-0-4-0-4-6**--|
E|-2222-2222-2222-2222------------xx-xx-x--------------| x2

Pre-chorus

e|-----------------------------------------------------|
B|-----------------------------------------------------|
G|-----------------------------------------------------|
D|------------------------44--44--44--44---------------|
A|------------------------55--55--55--55---------------|
E|-22-2*-2*--22-2*-2*-22-------------------------------|

Chorus

e|-----------------------------------------------------|
B|-22-22-22-22--22-22-22-22--77-77-77-77--77-77-99-99--|
G|-22-22-22-22--22-22-22-22--77-77-77-77--77-77-99-99--|
D|-22-22-22-22--22-22-22-22--77-77-77-77--77-77-99-99--|
A|-00-00-00-00--22-22-22-22--55-55-55-55--55-55-77-77--|
E|-----------------------------------------------------|

e|-----------------------------------------------------|
B|-9-9-9-9-9-9-9-9--9-9-9-9-9-9-9-9---77-77--77-77--7-7|
G|-1010101010101010-1010101010101010--77-77--77-77--7-7|
D|-1111111111111111-1111111111111111--77-77--77-77--7-7|
A|-9-9-9-9-9-9-9-9--9-9-9-9-9-9-9-9---55-55--55-55--5-5|
E|-----------------------------------------------------|

Intro repeat

Verse 3 same as verse 1 & 2

Pre-chorus

Chorus

Bridge

e|-----------------------------------------------------|
B|-44-44-44-44---------------77-77-77-77--77-77-77-77--|
G|-44-44-44-44---------------77-77-77-77--77-77-77-77--|
D|-22-22-22-22--44-44-44-44--77-77-77-77--77-77-77-77--|
A|-22-22-22-22--44-44-44-44--55-55-55-55--55-55-55-55--|
E|-00-00-00-00--22-22-22-22----------------------------| x4

Instrumental

e|-9--xx--9--xx--9-9-9-9-9---xx-xx--9-9-9--xx--9-9-9--12121212|
B|-10-xx--10-xx--1010101010--xx-xx--101010-xx--101010-10101010|
G|-9--xx--9--xx--9-9-9-9-9---xx-xx--9-9-9--xx--9-9-9--9-9-9-9-|
D|-11-xx--11-xx--1111111111--xx-xx--111111-xx--111111-11111111|
A|-9--xx--9--xx--9-9-9-9-9---xx-xx--9-9-9--xx--9-9-9--9-9-9-9-|
E|---------------------------xx-xx---------xx-----------------| x4

Pre-chorus

e|xx-xx-9--9--xx-xx-9--9----xx-xx--9---xx-xx-9-9--xx-9--xx-9--12121212|
B|xx-xx-10-10-xx-xx-10-10---xx-xx--10--xx-xx-1010-xx-10-xx-10-10101010|
G|xx-xx-9--9--xx-xx-9--9----xx-xx--9---xx-xx-9-9--xx-9--xx-9--9-9-9-9-|
D|xx-xx-11-11-xx-xx-11-11---xx-xx--11--xx-xx-1111-xx-11-xx-11-11111111|
A|xx-xx-9--9--xx-xx-9--9----xx-xx--9---xx-xx-9-9--xx-9--xx-9--9-9-9-9-|
E|xx-xx-------xx-xx---------xx-xx------xx-xx------xx----xx------------| x4

Chorus

Outro

e|-----------------------------------------------------|
B|-----------------------------------------------------|
G|-----------------------------------------------------|
D|-----------------------------------------------------|
A|-----------------------------------------------------|
E|-2222-2222-2222-2222---------------------------------|
            
Hard to play? Try these video lessons and learn fast. | Correct




comments powered by Disqus
↑ Back to top | Tablatures and chords are parodies/interpretations of the original songs. You may use it for private study, scholarship, research or language learning purposes only