» » »

Hillsongs, Always Tabs (ver.1)

Artists:  A B C D E F G H I J K L M N O P Q R S T U V W X Y Z # 

Always Tabs (ver.1)

Hillsongs Tabs
 Rating:
3.6/5 (5 votes)
Always lessons Tabs too difficult? Try these video lessons and learn fast
                Intro and Verse:
-7-----8---------------------------|
---7-----7-------------------------|
-----9-----9--(7)--------------9-6-|
------------------(9)--(12)--7-----|
-----------------------------------|
-----------------------------------|

Chorus:
Lead guitar ( Put some distortion )
-------------------------------|
-------5---------------5-------|
-----7---7---7-------7---7---7-|
---7-------7-------7-------7---|
-5-----------------------------|
-----------------5-------------|

-------2----------3------|
---------3-----------3---|
-----4----------5------4-|
---4----------5----------|
-2----------3------------|
-------------------------|

Chords:D-A-Bm_G
Bridge:
-10-10-------10--10-----------9---10--|
-------10--7---------7--8--10---------|
--------------------------------------|
--------------------------------------|
--------------------------------------|
--------------------------------------|
You can play ( --9h10-----------------| for the last two notes, using a hammer-on.
            
Submit corrections

comments powered by Disqus
↑ Back to top | Hillsongs Tabs for Always. Lyrics for acoustic guitar and electric guitar. Tablatures and chords are parodies/interpretations of the original songs. You may use it for private study, scholarship, research or language learning purposes only