» » »

Hail To The King Tabs (ver.1)

Artists:  A B C D E F G H I J K L M N O P Q R S T U V W X Y Z # 

Hail To The King Tabs (ver.1)

Hillsong London
Rating:
0/5 (0 votes)

Tabs too difficult? Try these video lessons and learn fast.
                This is my first tab so it stinks but its correct (whatever that meant)

Enjoy!

Intro/Verse 1:

e--------------------------|
B--------------------------|
G-5-----10-----9-----------|
D-5(4x)-10(2x)-9(2x)-------| 2x
A-3-----8------7-----------|
E--------------------------|

e--------------------------|
B--------------------------|
G--------------------------|
D-5-----3-----8------------|
A-5(8x)-3(4x)-8(4x)--------|
E-3-----1-----6------------|

Chorus:

e-------------------------------------|
B-------------------------------------|
G--------5-------------5--------------|
D-3------5(16x)-5------5(16x)---------|
A-3(16x)-3------5(16x)-3--------------|
E-1-------------3---------------------|

e-------------------------------------|
B-------------------------------------|
G--------5----------------------------|
D-3------5(8x)-7-----8----------------|
A-3(16x)-3-----7(8x)-8(24x)-----------|
E-1------------5-----6----------------|


Verse 

Chorus

Solo (Your guess is as good as mine)

Bridge (Play the chords for the chorus palm muted)

Outro:

e--------------------------|
B--------------------------|
G-5------------------------|
D-5-----7-----8------------| (Keep playing till end)
A-3-----7-----8------------|
E-------5-----6------------| 
            
Tabs too difficult? Try these video lessons and learn fast.




comments powered by Disqus
↑ Back to top | Tablatures and chords are parodies/interpretations of the original songs. You may use it for private study, scholarship, research or language learning purposes only