» » »

Hillsong, Mighty To Save Tabs (ver.1)

Artists:  A B C D E F G H I J K L M N O P Q R S T U V W X Y Z # 

Mighty To Save Tabs (ver.1)

Hillsong Tabs
Rating:
3/5 (1 vote)
Mighty To Save lessons Tabs too difficult? Try these video lessons and learn fast
                Intro}:It would be better if you hear the song and play along to figure out the rhythm

e ----------------------------------|
b ----12--14------------------------|
g -14-------------------------------|
d ----------------------------------|
a ----------------------------------|
e ----------------------------------|

 D A F# E

    D              A
Everyone needs compassion
                       F#
A Love that's never failing
     E
Let mercy fall on me
    D                A
Everyone needs forgiveness
                    F#
The kindness of a savior
     E
The hope of nations

 D E D E

Chorus:
   A
Savior
                   E
He can move the mountains
             D       A
My God is mighty to say
         F#      E
He is mighty to say
   A
Forever
               E
Author of Salvation
            D               A
He rose and conquered the grave
           F#         E
Jesus Conquered the grave

"the second guitar does this for a bit"
e ----------------------------------|
b ----12--14------------------------|
g -14-------------------------------|
d ----------------------------------|
a ----------------------------------|
e ----------------------------------|

Verse 2:
D                   A
So take me as you find me
                    F#
All my fears and failures
E                  D
Fill my life again
                     A
I give my life to follow
                F#
Everything I believe in
    E
Now I Surrender

D A D A

Chorus:
   A
//Savior
                   E
He can move the mountains
             D       A
My God is mighty to say
         F#      E
He is mighty to say
   A
Forever
               E
Author of Salvation
            D               A
He rose and conquered the grave
           F#         E
Jesus Conquered the grave//

[SOLO]:Honestly I dont really pay much atention to this part i just make something
up since i play it at church but you can figure out how it actually goes by hearing
and playing along with the song

E-------------------------------------------------------------12----|
B--15-15-15-14---14-14-14-12-12--12-14-15-15-15-14----14-14-14--12--|
G-------------------------------------------------------------------|
D-------------------------------------------------------------------|
A-------------------------------------------------------------------|
E-------------------------------------------------------------------|

  D                 A
Shine your light and
                     E
Let the whole world see
               D
We're singing for the glory
A              E
Of the risen King
      D
Jesus Shine your light and
A                     E
Let the whole world see
               D            A
We're singing for the glory
               E
Of the risen King


Chorus:
    A
//Savior
                   E
He can move the mountains
             D       A
My God is mighty to say
         F#      E
He is mighty to say
   A
Forever
               E
Author of Salvation
            D               A
He rose and conquered the grave
           F#         E
Jesus Conquered the grave//


      D                 A
////Shine your light and
                     E
Let the whole world see
               D
We're singing for the glory
A              E
Of the risen King
      D
Jesus Shine your light and
A                     E
Let the whole world see
               D            A
We're singing for the glory
               E
Of the risen King////


Well i wrote this as accurate as possible i hope its of help,remember do what ever you 
for GOD and it will be of great blessing to your life,!!NEVER do it for self glory cuz 
            

comments powered by Disqus
↑ Back to top | Hillsong Tabs for Mighty To Save. Lyrics for acoustic guitar and electric guitar. Tablatures and chords are parodies/interpretations of the original songs. You may use it for private study, scholarship, research or language learning purposes only