» » »

Avalancha Tabs (ver.1)

Artists:  A B C D E F G H I J K L M N O P Q R S T U V W X Y Z # 

Avalancha Tabs (ver.1)

Heroes Del Silencio
Rating:
5/5 (4 votes)

Hard to play? Try these video lessons and learn fast.
                Riff 1(Intro):
=-=-=-=-=-=-=-=-=-=-=-=-=
-=-=-=-=-=-=-=-=-=-=-=-=-


                    Em                  Bm                    A  
E|----------------|-------------------|---------------------|-------------------------------|
B|----------------|-------------------|---------------------|-------------------------------|
G|------11p9p7--7-|-9----9----------6-|-6/7~~-9-7-6h7p6-----|-6b(7)r6-----------------------|
D|------------9---|-9----9------7-9---|-----------------9-7-|---------7---7-5---------------|
A|----------------|--------10-7-------|---------------------|-----------------7-5-----------|
E|----------------|-------------------|---------------------|---------------------5-3-2b(3)-|



     Em                 Bm                  A                     Em
E|-------0------------|-------------------|---------------------|------------------------------|
B|-------0------------|-------------------|---------------------|---------------------------8--|
G|----------11p9p7--7-|-9----9----------6-|-6/7~~-9-7-6h7p6-----|-6b(7)r6-----------6/7-7-9---9|
D|---2------------9---|-9----9------7-9---|-----------------9-7-|---------7---7-5--------------|
A|---2----------------|--------10-7-------|---------------------|-----------------7------------|
E|---0----------------|-------------------|---------------------|------------------------------|



Riff 2 
=-=-=-=-=-=-=-=-=-=-=-=-=
-=-=-=-=-=-=-=-=-=-=-=-=-


    Em                                     Em(esto se toca en medio de los versos) 
E|----------------------|--------------|----------------------|-----------------------|
B|--8-------------------|--------------|----------------------|-----------------------|
G|----9------11p9p7--7--|-9--(VERSO)---|-----------11p9p7--7--|-9---(CONTINUA VERSO)--|
D|-----------------9----|-9------------|---2-------------9----|-9---------------------|
A|----------------------|--------------|---2------------------|-----------------------|
E|----------------------|--------------|---0------------------|-----------------------|


Coro (oigan bien el disco, para que tomen el ritmo)
=-=-=-=-=-=-=-=-=-=-=-=-=
-=-=-=-=-=-=-=-=-=-=-=-=-

    Em                           D             
E|-----------------------------|---------5------5--5---------||
B|-----------------------------|---------7------7--7---------||
G|--7/9-9-9-9\---12--11--9-9-5-|-5/7-7-7-7--7-7-7--7--7-7-7--||   Repite x4
D|--7/9-9-9-9\---12--11--9-9-5-|-5/7-7-7-7--7-7-7--7--7-7-7--||
A|--5/7-7-7-7\---10--9---7-7-3-|-3/5-5-5-5--5-5-5--5--5-5-5--||
E|-----------------------------|-----------------------------||
            
Hard to play? Try these video lessons and learn fast. | Correct




comments powered by Disqus
↑ Back to top | Tablatures and chords are parodies/interpretations of the original songs. You may use it for private study, scholarship, research or language learning purposes only