» » »

Helloween, We Burn Bass tabs (ver.1)

Artists:  A B C D E F G H I J K L M N O P Q R S T U V W X Y Z # 

We Burn Bass tabs (ver.1)

Helloween Tabs
 Rating:
4/5 (4 votes)
We Burn lessons Tabs too difficult? Try these video lessons and learn fast
1
                Intro 2X.                           
G-------------------|-----------------|-------------------|-----------------|---
D-------------------|-----------5-8-7-|-------------------|-----------5-8-7-|---
A-7-7-5-7-7-5-7-7-5-|-7-7-5-7-7-------|-7-7-5-7-7-5-7-7-5-|-7-7-5-7-7-------|---
E-------------------|-----------------|-------------------|-----------------|---

	Vocals 2X.

G---------------------------|---------------------------------|-------|-------------|---
D---------------------------|-----------------2-2-2-0-0-0-----|-------|-----2-2-2-2-|---
A-0-0-3-0-0-3-0-0-3-0-0-3-0-|-0-0-3-0-0-3-0-0-------------3-3-|-------|---5---------|---
E---------------------------|---------------------------------|-1-----|-3-----------|---

	Bridge.

G-----------------|-----------------|-----------|-----------------|---
D-----------------|-----------------|-----------|-2-2-2-2-2-2-2-2-|---
A-----------------|-----------------|-3-3-3-3-3-|-----------------|---
E-3-3-3-3-3-3-3-3-|-5-5-5-5-5-5-5-5-|-----------|-----------------|---

G-----------------|-----------------|-------------|-----------------|---
D-----------------|-----------------|-------------|-----------------|---
A-----------------|-----------------|-3-3-3-3-3-3-|-----------------|---
E-3-3-3-3-3-3-3-3-|-5-5-5-5-5-5-5-5-|-------------|-0-0-0-0-0-0-0-0-|---

G--------------|---
D--------------|---
A--------------|---
E-0-0-0-0-(1)--|---

	Chorus 1.

G-------------------|----------------------5-5---------|---
D-7-7-5-7-7-5-7-7-5-|-7-7-5-5----------7-7-----7-7-5-5-|---
A-------------------|----------7-7-5-5-----------------|---
E-------------------|----------------------------------|---

G---------------------5-7-----|----------|---
D-3-3-3-3--------7-7------3-2-|-(0)------|---
A-----------------------------|------3---|---
E--------1-1-1-1--------------|--------3-|---

	Repeat Vocals and Bridge.

	Chorus 2.

G-------------------|---------------------------------|---------------------------------|-
D-7-7-5-7-7-5-7-7-5-|-7-7-5-5-------------5-5-7-7-2-2-|-3-3-----------------------------|-
A-------------------|---------7-7-5-5-7-7-------------|-----------------7-7-5-5-8-8-7-7-|-
E-------------------|---------------------------------|-----1-1-1-1-1-1-----------------|-

G---------------|---
D---------------|---
A-5-5-5-5--3----|---
E-------------3-|---

G-------------------|--------------------5-5-9-9-7-7-|-------------------------|---
D-7-7-5-7-7-5-7-7-5-|-7-7-5-5------------------------|-3-3---------------------|---
A-------------------|---------7-7-5-5-3-3------------|---------7-7-5-5-8-8-7-7-|---
E-------------------|--------------------------------|-----1-1-----------------|---

G---------------|---
D---------------|---
A-5-5-5-5--3----|---
E-------------3-|---


	Solo.

G-----------------|----------------|-----------------|---------------|---
D-----------------|----------------|-----------------|---------------|---
A-2-2-2-2-2-2-2-2-|-2-2-2-2----5---|-2-2-2-2-2-2-2-2-|-2-2-2-2---5---|---
E-----------------|----------5---5-|-----------------|---------5---5-|---

G-----------------|-------------|-----------------|-----------------|---
D-----------------|-------------|-----------------|-----------------|---
A-2-2-2-2-2-2-2-2-|-2-2-2-2---5-|-7-7-7-7-7-7-7-7-|-5-5-5-5-3-3-3-3-|---
E-----------------|---------5---|-----------------|-----------------|---

G-----------------|-----------------|-----------------|-----------------|---
D-----------------|-----------------|-----------------|-----------------|---
A-5-5-5-5-7-7-7-7-|-5-5-5-5-3-3-3-3-|-7-7-7-7-7-7-7-7-|-5-5-5-5-3-3-3-3-|---
E-----------------|-----------------|-----------------|-----------------|---

G-----------------|-----------------|-----------------|---------|---
D-----------------|-----------------|-----------------|---------|---
A-5-5-5-5-7-7-7-7-|-5-5-5-5-3-3-3-3-|-----------------|----3----|---
E-----------------|-----------------|-5-5-5-5-5-5-5-5-|--3---3--|---

G-----------------|------------|-----------------|---------|---
D-----------------|------------|-----------------|---------|---
A-----------------|-----3------|-----------------|-----3---|---
E-5-5-5-5-5-5-5-5-|--3-----3---|-5-5-5-5-5-5-5-5-|--3------|---
            
Submit corrections

comments powered by Disqus
↑ Back to top | Helloween Bass for We Burn. Lyrics for acoustic guitar and electric guitar. 1 Tablatures and chords are parodies/interpretations of the original songs. You may use it for private study, scholarship, research or language learning purposes only