>
 >
Savage

Savage Bass Tabs

Helloween - Savage chords, tabs, tablatures, lyrics

Guitar lessons | Add/correct | Request | Top 50 tabs Artists:  A B C D E F G H I J K L M N O P Q R S T U V W X Y Z 0-9

Savage Bass Tabs – Helloween

CD, Sheet music, Poster

Do you like Savage? Share with your friends now
Bass TabsBass Tabs v2Tabs
G||------------------|---------------------------|---------------------------|
D||------------------|---------------------------|---------------------------|
A||------------------|---------------0-----------|------------------2-----3--|
E||------------------|--2--2-2-2--2-----2--0--2--|--2--2-2-2--2--2-----2-----|


                                                                         
---------------------------|------------------------|-------------------|
---------------------------|------------------------|-------------------|
---------------0-----------|--5---4---2-------------|-------------------|
--2--2-2-2--2-----2--0--2--|---------------5--4--2--|--0----------------|


                                                        
|---------------------------|--------------------------|
|*--------------------------|--------------------------|
|*--------------------------|-----------------2-----3--|
|---2--2--2--2--2--2--2--2--|--2--2--2--2--2-----2-----|


                                                        
--------------------------|---------------------------||
--------------------------|-----------------2-----3--*||
--2--2--2--2--2--2--2--2--|--2--2--2--2--2-----2-----*||
--------------------------|---------------------------||


                                                      
--------------------------|--------------------------|
-----------------2-----3--|--------------------------|
--2--2--2--2--2-----2-----|--------------------------|
--------------------------|--2--2--2--2--2--2--2--2--|


                                                      
--------------------------|--------------------------|
--------------------------|--0--0--0--0--0--0--0--0--|
--0--0--0--0--0--0--0--0--|--------------------------|
--------------------------|--------------------------|


                                                      
--------------------------|--------------------------|
--2--2--2--2--2--2--2--2--|--------------------------|
--------------------------|--------------------------|
--------------------------|--2--2--2--2--2--2--2--2--|


                                                      
--------------------------|--------------------------|
--------------------------|--0--0--0--0--0--0--0--0--|
--0--0--0--0--0--0--0--0--|--------------------------|
--------------------------|--------------------------|


                                                                                
--------------------------||-----------------------|---------------------------|
--------------------------||*----------------------|---------------------------|
--4--4--4--4--4--4--4--4--||*--5----4----2----0----|---------------0-----------|
--------------------------||-----------------------|--2--2-2-2--2-----2--0--2--|


                                                        
---------------------------|---------------------------|
---------------------------|---------------------------|
------------------2-----3--|---------------0-----------|
--2--2-2-2--2--2-----2-----|--2--2-2-2--2-----2--0--2--|


                                                         
----------------------------||--------------------------|
---------------------------*||--------------------------|
------------------2-----3--*||-----------3-----2-----3--|
--2--2-2-2--2--2-----2------||--0--2--x-----x-----x-----|


                                                                             
--------------------------|--------------------||---------------------------|
--------------------------|--------------------||*--------------------------|
-----2-----3-----2-----3--|--0-----------------||*--------------------------|
--x-----x-----x-----x-----|-----2--------------||---2--2--2--2--2--2--2--2--|


                                                      
--------------------------|--------------------------|
--------------------------|--------------------------|
-----------------2-----3--|--2--2--2--2--2--2--2--2--|
--2--2--2--2--2-----2-----|--------------------------|


                                                        
---------------------------||--------------------------|
-----------------2-----3--*||-----------------2-----3--|
--2--2--2--2--2-----2-----*||--2--2--2--2--2-----2-----|
---------------------------||--------------------------|


                                                      
--------------------------|--------------------------|
--------------------------|--------------------------|
--------------------------|--0--0--0--0--0--0--0--0--|
--2--2--2--2--2--2--2--2--|--------------------------|


                                                      
--------------------------|--------------------------|
--0--0--0--0--0--0--0--0--|--2--2--2--2--2--2--2--2--|
--------------------------|--------------------------|
--------------------------|--------------------------|


                                                      
--------------------------|--------------------------|
--------------------------|--------------------------|
--------------------------|--0--0--0--0--0--0--0--0--|
--2--2--2--2--2--2--2--2--|--------------------------|


                                                                               
--------------------------|--------------------------||-----------------------|
--0--0--0--0--0--0--0--0--|--------------------------||*----------------------|
--------------------------|--4--4--4--4--4--4--4--4--||*--5----4----2----0----|
--------------------------|--------------------------||-----------------------|


                                                        
---------------------------|---------------------------|
---------------------------|---------------------------|
---------------0-----------|------------------2-----3--|
--2--2-2-2--2-----2--0--2--|--2--2-2-2--2--2-----2-----|


                                                          
---------------------------|----------------------------||
---------------------------|---------------------------*||
---------------0-----------|------------------2-----3--*||
--2--2-2-2--2-----2--0--2--|--2--2-2-2--2--2-----2------||


                                                                           
--------------------------|--------------------------|--------------------|
--------------------------|--------------------------|--------------------|
-----------3-----2-----3--|-----2-----3-----2-----3--|--0-----------------|
--0--2--x-----x-----x-----|--x-----x-----x-----x-----|-----2--------------|


                                                                             
--9--7--------7-----------|--------------------------|----------------------|
--------9--8-----9--8--7--|--9--8--7-----7-----------|----------------------|
--------------------------|-----------9-----9--8--7--|----------------------|
--------------------------|--------------------------|--0----0----0----0----|


                                                                     
----------------------|----------------------|----------------------|
----------------------|----------------------|----------------------|
----------------------|----------------------|----------------------|
--0----0----0----0----|--0----0----0----0----|--0----0----0----0----|


                                                       
|---------------------------|-------------------------|
|*--------------------------|-------------------------|
|*--------------------------|--------------------2----|
|---3--0--2--0--1--0--1--2--|--3--0--2--0--1--0-------|


                                                       
--------------------------|--------------------------||
--------------------------|-------------------------*||
--------------------------|--------------------0----*||
--3--0--2--0--1--0--1--2--|--3--0--2--0--1--0--------||


                                                      
---------------------------|-------------------------|
*--------------------------|-------------------------|
*--------------------------|--------------------2----|
---3--0--2--0--1--0--1--2--|--3--0--2--0--1--0-------|


                                                                                
--------------------------|-------------------------|--------------------------|
--------------------------|-------------------------|--------------------------|
--------------------------|--------------------0----|--3--3--3--3--3--3--3--3--|
--3--0--2--0--1--0--1--2--|--3--0--2--0--1--0-------|--------------------------|


                                                                                
--------------------------|--------------------------|-------------------------|
--------------------------|--------------------------|-------------------------|
--5--5--5--5--5--5--5--5--|--------------------------|--------------------2----|
--------------------------|--3--0--2--0--1--0--1--2--|--3--0--2--0--1--0-------|


                                                       
--------------------------|--------------------------||
--------------------------|-------------------------*||
--------------------------|--------------------0----*||
--3--0--2--0--1--0--1--2--|--3--0--2--0--1--0--------||


                                                                              
--------------------------|-------------------------|------------------------|
--------------------------|-------------------------|------------------------|
--------------------------|--------------------2----|--3----3--3--3----3--3--|
--3--0--2--0--1--0--1--2--|--3--0--2--0--1--0-------|------------------------|


                                                                             
------------------------|-------------------------|-------------------------|
------------------------|-------------------------|-------------------------|
------------------------|-------------------------|-------------------------|
--3----3--3--3----3--3--|--5----5--5--5--3--3--5--|--5----5--5--5--3--3--5--|


                                                  
------------------------|------------------------|
------------------------|------------------------|
--3----3--3--3----3--3--|------------------------|
------------------------|--3----3--3--3----3--3--|


                                                                      
----------------------------------|----------------------------------|
----------------------------------|----------------------------------|
--2-2-2-2-2-2-2-2-2-2-2-2-2-2-2-2-|--2-2-2-2-2-2-2-2-2-2-2-2-2-2-2-2-|
----------------------------------|----------------------------------|


                                                                      
----------------------------------|----------------------------------|
----------------------------------|----------------------------------|
----------------------------------|----------------------------------|
--0-0-0-0-0-0-0-0-0-0-0-0-0-0-0-0-|--0-0-0-0-0-0-0-0-0-0-0-0-0-0-0-0-|


                                                        
---------------------------|---------------------------|
---------------------------|---------------------------|
---------------0-----------|------------------2-----3--|
--2--2-2-2--2-----2--0--2--|--2--2-2-2--2--2-----2-----|


                                                                         
---------------------------|------------------------|-------------------|
---------------------------|------------------------|-------------------|
---------------0-----------|--5---4---2-------------|-------------------|
--2--2-2-2--2-----2--0--2--|---------------5--4--2--|--0----------------|


                                                      
--------------------------|--------------------------|
--------------------------|--------------------------|
--------------------------|-----------------2-----3--|
--2--2--2--2--2--2--2--2--|--2--2--2--2--2-----2-----|


                                                      
--------------------------|--------------------------|
--------------------------|-----------------2-----3--|
--2--2--2--2--2--2--2--2--|--2--2--2--2--2-----2-----|
--------------------------|--------------------------|


                                                      
--------------------------|--------------------------|
--------------------------|--------------------------|
--------------------------|-----------------2-----3--|
--2--2--2--2--2--2--2--2--|--2--2--2--2--2-----2-----|


                                                      
--------------------------|--------------------------|
--------------------------|-----------------2-----3--|
--2--2--2--2--2--2--2--2--|--2--2--2--2--2-----2-----|
--------------------------|--------------------------|


                                                      
--------------------------|--------------------------|
--------------------------|--------------------------|
--------------------------|--0--0--0--0--0--0--0--0--|
--2--2--2--2--2--2--2--2--|--------------------------|


                                                      
--------------------------|--------------------------|
--0--0--0--0--0--0--0--0--|--2--2--2--2--2--2--2--2--|
--------------------------|--------------------------|
--------------------------|--------------------------|


                                                      
--------------------------|--------------------------|
--------------------------|--------------------------|
--------------------------|--0--0--0--0--0--0--0--0--|
--2--2--2--2--2--2--2--2--|--------------------------|


                                                                               
--------------------------|--------------------------||-----------------------|
--0--0--0--0--0--0--0--0--|--------------------------||*----------------------|
--------------------------|--4--4--4--4--4--4--4--4--||*--5----4----2----0----|
--------------------------|--------------------------||-----------------------|


                                                        
---------------------------|---------------------------|
---------------------------|---------------------------|
---------------0-----------|------------------2-----3--|
--2--2-2-2--2-----2--0--2--|--2--2-2-2--2--2-----2-----|


                                                          
---------------------------|----------------------------||
---------------------------|---------------------------*||
---------------0-----------|------------------2-----3--*||
--2--2-2-2--2-----2--0--2--|--2--2-2-2--2--2-----2------||


                                                                           
--------------------------|--------------------------|--------------------|
--------------------------|--------------------------|--------------------|
-----------3-----2-----3--|-----2-----3-----2-----3--|--0-----------------|
--0--2--x-----x-----x-----|--x-----x-----x-----x-----|-----2--------------|


                                                     
|-----------------------|---------------------------|
|*----------------------|---------------------------|
|*--5----4----2----0----|---------------0-----------|
|-----------------------|--2--2-2-2--2-----2--0--2--|


                                                        
---------------------------|---------------------------|
---------------------------|---------------------------|
------------------2-----3--|---------------0-----------|
--2--2-2-2--2--2-----2-----|--2--2-2-2--2-----2--0--2--|


                                                         
----------------------------||--------------------------|
---------------------------*||--------------------------|
------------------2-----3--*||-----------3-----2-----3--|
--2--2-2-2--2--2-----2------||--0--2--x-----x-----x-----|


                                                                      
--------------------------|--------------------|--------------------||
--------------------------|--------------------|--------------------||
-----2-----3-----2-----3--|--0-----------------|--0-----------------||
--x-----x-----x-----x-----|-----2--------------|-----2--------------||





Comments


Popular Helloween tabs & chords
A Million To One Bass Tabs
Anything My Mama Don't Like 1 Bass Tabs
Doctor Stein Bass Tabs
Guardians 2 Bass Tabs
Kings Will Be Kings 2 Bass Tabs
Power Bass Tabs
Still We Go Bass Tabs
In The Night Chords
I Want Out Tabs
Livin Ain't No Crime Tabs


Song lyrics



↑ Back to top | Tablatures and chords are parodies/interpretations of the original songs. You may use it for private study, scholarship, research or language learning purposes only
© 2014 AZChords.com Contact us | Privacy policy | DMCA | Add/correct tabs | Request tabs | Top 50 tabs