>
 >
In The Middle Of A Heartbeat 1

In The Middle Of A Heartbeat 1 Guitar Tabs

Helloween - In The Middle Of A Heartbeat 1 chords, tabs, tablatures, lyrics

Guitar lessons | Add/correct | Request | Top 50 tabs Artists:  A B C D E F G H I J K L M N O P Q R S T U V W X Y Z 0-9

In The Middle Of A Heartbeat 1 Guitar Tabs – Helloween

CD, Sheet music, Poster

Do you like In The Middle Of A Heartbeat 1? Share with your friends now
Bass TabsTabsTabs v2

IN THE MIDDLE OF A HEARTBEAT
As recorded by Helloween
(From the 1994 Album MASTER OF THE RINGS)

	



D5
x 5 7 7 x x
	
A5
x 0 2 2 x x
	
Bb5
x 1 3 3 x x
	
C5
x 3 5 5 x x

Gtr I (D# G# C# F# A# D#) - 'Clean I'
Gtr II (D# G# C# F# A# D#) - 'Clean II'
Gtr III (D# G# C# F# A# D#) - 'Distortion Rhythm'
Gtr IV (D# G# C# F# A# D#) - 'Lead'
Gtr V (D# G# C# F# A# D#) - 'Clean III'
Gtr VI (D# G# C# F# A# D#) - 'distortion II'

 Intro
  Q=68
  D5             F/D              Gsus2add4/D   C     G/B
 4/4
  Gtrs I, II
   S S S S E S S  S S S S E S S   S S S S E S S S S E S S E
|-------------------------------|---------------------------|
|-^2h3-----3-----^0h1-----1-----|-------1-------------------|
|------2-----2--------2-----2---|-0h2-----2---------0-----0-|
|-^0-----0-----0-^0-----0-----0-|-0-0-0-----------2-----0---|
|-------------------------------|-----------0-2-3-----2-----|
|-------------------------------|---------------------------|


  Dm
   S S S S E S S  S S S S E S S
|-^1p0-----------^1p0-------------|
|----------3--------------3-------|
|------2-----2--------2-----2-----|
|-^0-----0-----0-^0-----0-----0---|
|---------------------------------|
|---------------------------------|


   Verse
    D5             F/D
     S S S S E S S  S S S S E S S
||--------------------------------|
||o-^2h3-----3-----^0h1-----1-----|
||-------2-----2--------2-----2---|
||--^0-----0-----0-^0-----0-----0-|
||o-------------------------------|
||--------------------------------|


  Gsus2add4/D   C     G/B     Dm
  S S S S E S S S S E S S E    S S S S E S S  S S S S E S S
|---------------------------|-^1p0-----------^1p0------------||
|-------1-------------------|----------3--------------3-----o||
|-0h2-----2---------0-----0-|------2-----2--------2-----2----||
|-0---0-----------2-----0---|-^0-----0-----0-^0-----0-----0--||
|-----------0-2-3-----2-----|-------------------------------o||
|---------------------------|--------------------------------||


 Bridge
  Q=69
  $
  F                    Am
  E S S S S S S H      S S S S S S E +Q   S S S S
|--------------------|-------------0-(0)----------|
|-------0------------|-------0-1p0--------1p0-----|
|-----4---2-----4----|-----2------------------2---|
|---3-------3--------|---2----------------------2-|
|-------------3------|-0--------------------------|
|-1------------------|----------------------------|


  F                             Em
                                          Gtr I
                        |-3-|   |-3-|
  S S S S S S S S Q..   T T T   T T T +E. Q  S S S S S S S S
|-----------------------0-----|---------------------------------|
|---------0---------------0---|---------------------------------|
|-------2---2-----2---------0-|-----------0--0-0-0-0-0-0-0-0----|
|-----3-------3---------------|-2---------2--2-2-2-2-2-2-2-2----|
|---3-----------3-------------|---2-------2--2-2-2-2-2-2-2-2----|
|-1---------------------------|-----0-(0)-0--0-0-0-0-0-0-0-0----|


 Chorus
  D5       A5        Bb5            D5
  Gtr III
  Q  Q     E   E   E E   +Q.    S S S S E Q
  |  |     |   |   | |    |     | | | | | |
  /  /     /   /   / /    /     o o / / / /

  Q  E S S S S S S E E   +Q   E S S S S E E S S
|-5--5-5-5-1p0-0-0-0-1-|-(1)--1-1-1-5-5-5-5-5-5-|
|-6--6-6-6-3---1-1-1-3-|-(3)--3-3-3-6-6-6-6-6-6-|
|-7--7-7-7-2---2-2-2-3-|-(3)--3-3-3-7-7-7-7-7-7-|
|-7--7-7---0---2---2-3-|-(3)--3-3---7-7-7-7-7-7-|
|-5--5---------0---0-1-|-(1)--1-----5-----5-----|
|----------------------|------------------------|
|
| Gtr VI
| W                       W
|----------------------|------------------------|
|----------------------|------------------------|
|----------------------|------------------------|
|----------------------|------------------------|
|----------------------|------------------------|
|----------------------|------------------------|


  Bb5      C5          D5           A5
  Q  Q     S S E Q     Q.            E  +H
  |  |     | | | |     |             |   |
  /  /     / / / /     /             /   /

  Q  E S S S S E E E   S  S S S E    E  +Q        E   E
|-1------------------|-5--5-5-5-5---^3--(3)-------3---3---|
|-3--3-3-3-5-5-5-5-5-|-6--6-6-6-6---^1--(1)-------1---1---|
|-3--3-3-3-5-5-5-5-5-|-7--7-7-7-7---^2--(2)-------2---2---|
|-3--3-3-3-5-5-5-5-5-|-7--7-7-7-7---^2--(2)-------2---2---|
|-1--1-1---3-----3---|-5--------5---^0--(0)-------0-------|
|--------------------|------------------------------------|
|
|                      PM-------------------------------|
| W                    S  S S S S S  E.     S S S S S S S
|--------------------|------------------------------------|
|--------------------|----------3-x-----------------------|
|--------------------|--------2---------------------------|
|--------------------|----3-5---------------------3-2-----|
|--------------------|-5-------------0------0-3-5-----5-3-|
|--------------------|------------------------------------|


  D5       A5        Bb5            D5
  Q  Q     E   E   E E   +Q.    S S S S E Q
  |  |     |   |   | |    |     | | | | | |
  /  /     /   /   / /    /     o o / / / /

  Q  E S S S S S S E E   +Q   E S S S S E E S S
|-5--5-5-5-1p0-0-0-0-1-|-(1)--1-1-1-5-5-5-5-5-5-|
|-6--6-6-6-3---1-1-1-3-|-(3)--3-3-3-6-6-6-6-6-6-|
|-7--7-7-7-2---2-2-2-3-|-(3)--3-3-3-7-7-7-7-7-7-|
|-7--7-7---0---2---2-3-|-(3)--3-3---7-7-7-7-7-7-|
|-5--5---------0---0-1-|-(1)--1-----5-----5-----|
|----------------------|------------------------|


              To Coda
  Bb5      C5          D5         A5
  Q  Q     S S E Q     Q.          E  +H
  |  |     | | | |     |           |   |
  /  /     / / / /     /           /   /

                                      Gtrs I, II
  Q  E S S S S E E E   S  S S S E  E.    S S S S S S S
|-1------------------|-5--5-5-5-5-^3-------------0------|
|-3--3-3-3-5-5-5-5-5-|-6--6-6-6-6-^1-----------1---1----|
|-3--3-3-3-5-5-5-5-5-|-7--7-7-7-7-^2---------2-------0--|
|-3--3-3-3-5-5-5-5-5-|-7--7-7-7-7-^2-------2------------|
|-1--1-1---3-----3---|-5--------5-^0-----0--------------|
|--------------------|----------------------------------|


 Guitar Break
  Q=68
  D5                    F/D
  Gtr IV
             ~~~~~~~~~~~~~~~~~
   E        +Q.          +Q..            S
|------------------------------------------|
|-13b15====(13)---------(13)------------13-|
|------------------------------------------|
|------------------------------------------|
|------------------------------------------|
|------------------------------------------|
|
| Gtrs I, II
|  S     S   S  S E S S   S   S S S E S  S
|------------------------------------------|
|-^2h====3--------3-----^-0h==1-----1------|
|------------2------2-----------2-----2----|
|-^0------------0-----0-^-0-------0------0-|
|------------------------------------------|
|------------------------------------------|


  Gsus2add4/D            C          G/B           Dm
                           ~~~~                     ~~~~
   +S   +E.      +Q       +E    S S  S  S  S  S     H.                     S  S  T  T  S
|-----------------------------------------------|----------------------------------------|
|-(13)r(13)-----(13)-----(13)---x-x-12h13p12----|----------------------------------------|
|--------------------------------------------12-|-/14----------------------x-12----------|
|-----------------------------------------------|-------------------------------14S12-10-|
|-----------------------------------------------|----------------------------------------|
|-----------------------------------------------|----------------------------------------|
|
|   S    S  S S   E  S S   S  S E    S  S  E        S S S S E S S  S S S S E     S     S
|-----------------------------------------------|-^-1p0-----------^1p0-------------------|
|-------------1---------------------------------|-----------3--------------3-------------|
|---0h===2--------2-------------0----------0----|-------2-----2--------2---------2-------|
|---0-------0-----------------2---------0-------|-^-0-----0-----0-^0-----0-------------0-|
|--------------------0-2---3---------2----------|----------------------------------------|
|-----------------------------------------------|----------------------------------------|


 Verse
  D5             F/D
                   >
   ~~~
   H              +Q       Q
|--------------------------------|
|--------------------------------|
|--------------------------------|
|-12-------------(12)------------|
|--------------------------------|
|--------------------------------|
|
|  S S S S E S S   S S S S E S S
|--------------------------------|
|-^2h3-----3-----^-0h1-----1-----|
|------2-----2---------2-----2---|
|-^0-----0-----0-^-0-----0-----0-|
|--------------------------------|
|--------------------------------|


  Gsus2add4/D   C     G/B     Dm
  W                            W
|---------------------------|--------------------------------|
|---------------------------|--------------------------------|
|---------------------------|--------------------------------|
|---------------------------|--------------------------------|
|---------------------------|--------------------------------|
|---------------------------|--------------------------------|
|
| S S S S E S S S S E S S E    S S S S E S S  S S S S E S S
|---------------------------|-^1p0-----------^1p0------------|
|-------1-------------------|----------3--------------3------|
|-0h2-----2---------0-----0-|------2-----2--------2-----2----|
|-0---0-----------2-----0---|-^0-----0-----0-^0-----0-----0--|
|-----------0-2-3-----2-----|--------------------------------|
|---------------------------|--------------------------------|


  D5             F/D              Gsus2add4/D   C     G/B
  Gtrs I, II
   S S S S E S S  S S S S E S S   S S S S E S S S S E S S E
|-------------------------------|---------------------------|
|-^2h3-----3-----^0h1-----1-----|-------1-------------------|
|------2-----2--------2-----2---|-0h2-----2---------0-----0-|
|-^0-----0-----0-^0-----0-----0-|-0---0-----------2-----0---|
|-------------------------------|-----------0-2-3-----2-----|
|-------------------------------|---------------------------|


                  D.S. al Coda
  Dm
   S S S S E S S  S S S S E S S
|-^1p0-----------^1p0------------|
|----------3--------------3------|
|------2-----2--------2-----2----|
|-^0-----0-----0-^0-----0-----0--|
|--------------------------------|
|--------------------------------|


  Q=66
  &
  D5        A5                     D5        A5
  Gtr III
  S S S S E  E +H                  S S S S E  E +H
  | | | | |  |  |                  | | | | |  |  |
  / / / / /  /  /                  / / / / /  /  /

  Gtr I            Gtrs I, II      Gtr I            Gtrs I, II
  S S S S E  E +S  S S S S S S S   S S S S E  E +S  S S S S S S S
|-5-5-5-5-5-^3-(3)---------0-----|-5-5-5-5-5-^3-(3)---------0-----|
|-6-6-6-6-6-^1-(1)-------1---1---|-6-6-6-6-6-^1-(1)-------1---1---|
|-7-7-7-7-7-^2-(2)-----2-------2-|-7-7-7-7-7-^2-(2)-----2-------2-|
|-7-7-7-7-7-^2-(2)---2-----------|-7-7-7-7-7-^2-(2)---2-----------|
|-5-------5-^0-(0)-0-------------|-5-------5-^0-(0)-0-------------|
|--------------------------------|--------------------------------|


 Interlude
  Q=67
  Dmadd9                              Am/C            Am
  Gtr V
  S   S S S S S S S S S S S S S S S   S S S S S S S S E.     T T E   E
|-------------------5---------------|------------------------5-5-5-------|
|-6---5-6-------5-6---6-5-------5-6-|-8-6-5-------5------------------5---|
|---------7---7-----------7---7-----|-------7-5-7---5--------------------|
|-----------7---------------7-------|-----------------7------------------|
|-----------------------------------|------------------------------------|
|-----------------------------------|------------------------------------|
|
| Gtr I
| T T S S S S S S S S S S S S S S S   S S S S S S S S S  S S S   S S S S
|-----------0---------------0-------|-----0---0------------------0-------|
|---------6---6-----------6---6-----|-------------1----------1-------1---|
|-------7-------7-------7-------7---|---2---2---2---2------2-------2---2-|
|-----7-----------7---7-----------7-|--------------------2---------------|
|-5-5---------------5---------------|-3---------------0------------------|
|-----------------------------------|------------------------------------|


  Dmadd9                              Am/C              Am
  Gtr V
  S   S S S S S S S S S S S S S S S   S S  S S S S  S S E.     T T E   E
|---------5---------5-----5---------|--------------------------5-5-5-------|
|-6---5-6---5-6-6-8---6-5---5-6-6-8-|-8-6--5--------5------------------5---|
|-----------------------------------|--------7-5-7----5--------------------|
|-----------------------------------|-------------------7------------------|
|-----------------------------------|--------------------------------------|
|-----------------------------------|--------------------------------------|
|
| Gtr II
| S   S S S S S S S S S S S S S S S   S S  S S S S  S S E.     T T E   E
|-----------------------------------|--------------------------8-8-8-------|
|-----------------5-6-----6---------|----------------------------------8---|
|-7---5-7-7-5-7-7-----7-5---5-7-7-7-|-9-7----------------------------------|
|-----------------------------------|-----10-9-7-9-10-7--------------------|
|-----------------------------------|-------------------7------------------|
|-----------------------------------|--------------------------------------|
|
| Gtr I
| T T S S S S S S S S S S S S S S S   S S  S S S S  S S S  S S S   S S S S
|-----------0---------------0-------|------0---0-------------------0-------|
|---------6---6-----------6---6-----|---------------1----------1-------1---|
|-------7-------7-------7-------7---|---2----2---2----2------2-------2---2-|
|-----7-----------7---7-----------7-|----------------------2---------------|
|-5-5---------------5---------------|-3-----------------0------------------|
|-----------------------------------|--------------------------------------|


  F           G           Am
                              |--3--|
   S  S  S  S  S  S  S  S  S  T  T  T  S  S  S  S  S  S
|----------------------------------------15-13----------|
|----------------------15-17-15-17-15-13-------17-15-13-|
|-------14-17----14-16----------------------------------|
|-15-17-------17----------------------------------------|
|-------------------------------------------------------|
|-------------------------------------------------------|
|
|                             |--3--|
|  S  S  S  S  S  S  S  S  S  T  T  T  S  S  S  S  S  S
|----------------------------------------12-10----------|
|-----------------------8-13-12-13-12-10-------13-12-10-|
|--------------------7----------------------------------|
|--------7-10--9-10-------------------------------------|
|--8-10-------------------------------------------------|
|-------------------------------------------------------|
|
|  S  S  S  S  S  S  S  S  S  S        S  S  S  S  S  S
|--------------------------------------------0----------|
|-----------------------------------------1--------1----|
|-----------2-----------4--------------2--------2-----2-|
|--------3-----------5--------2-------------------------|
|-----3-----------5--------0----------------------------|
|--1-----------3----------------------------------------|


  F           G           Am
                                    |--3---|      |--3---|
   S  S  S  S  S  S  S  S  E.      +T   T  T  S  +T   T  T  E
|----------------------15--------------15-15-15-(15)-12-12-12---|
|-------13-17----13-15----13------(13)--------------------------|
|-14-16-------16------------------------------------------------|
|---------------------------------------------------------------|
|---------------------------------------------------------------|
|---------------------------------------------------------------|
|
|                                   |--3---|      |--3---|
|  S  S  S  S  S  S  S  S  E.      +T   T  T  S  +T   T  T  E
|---------------------------------------------------------------|
|----------------------15--------------17-17-17-(17)-13-13-13---|
|-------14-17----14-16----14------(14)--------------------------|
|-15-17-------17------------------------------------------------|
|---------------------------------------------------------------|
|---------------------------------------------------------------|
|
|  S  S  S  S  S  S  S  S  S  S S   S         S   S         S S
|---------------------------------------------0-----------------|
|-----------------------------------1-----------------------1---|
|-----------2-----------4-------2-----------------2-----------2-|
|--------3-----------5--------2---------------------------------|
|-----3-----------5--------0------------------------------------|
|--1-----------3------------------------------------------------|


                                                          Q=50       Q=60
  F           G           Am             C                Bb
 7/8                                                     3/4
                              |--3--|        |--3--|
   S  S  S  S  S  S  S  S  S  T  T  T  S  S  T  T  T  S    H         Q
|----------------------------------------15-13-15-13----|-17------------|
|----------------------15-17-15-17-15-13-------------17-|---------------|
|-------14-17----14-16----------------------------------|---------------|
|-15-17-------17----------------------------------------|---------------|
|-------------------------------------------------------|---------------|
|-------------------------------------------------------|---------------|
|
|                             |--3--|        |--3--|
|  S  S  S  S  S  S  S  S  S  T  T  T  S  S  T  T  T  S    H         Q
|----------------------------------------12-10-12-10----|-13------------|
|-------------------------13-12-13-12-10-------------13-|---------------|
|-----------9----------12-------------------------------|---------------|
|-----9-10-------10-12----------------------------------|---------------|
|-12----------14----------------------------------------|---------------|
|-------------------------------------------------------|---------------|
|
|                                                          |-3--|
|  S  S  S  S  S  S  S  S  S  S        S  S  S        S   +E  E E H
|--------------------------------------5--------------5-|-(5)-----8-----|
|-----------------------------5--------------5----------|-------6-------|
|-----------2-----------4-----------------5-------------|-----5---------|
|--------3-----------5-----7----------------------------|---------------|
|-----3-----------5-------------------------------------|---------------|
|--1-----------3----------------------------------------|---------------|


 Breakdown
  Q=68
  D5             F/D              Gsus2add4/D   C     G/B
 4/4
  Gtrs I, II
   S S S S E S S  S S S S E S S   S S S S E S S S S E S S E
|-------------------------------|---------------------------|
|-^2h3-----3-----^0h1-----1-----|-------1-------------------|
|------2-----2--------2-----2---|-0h2-----2---------0-----0-|
|-^0-----0-----0-^0-----0-----0-|-0---0-----------2-----0---|
|-------------------------------|-----------0-2-3-----2-----|
|-------------------------------|---------------------------|


  Dm
   S S S S E S S  S S S S E S S
|-^1p0-----------^1p0-------------|
|----------3--------------3-------|
|------2-----2--------2-----2-----|
|-^0-----0-----0-^0-----0-----0---|
|---------------------------------|
|---------------------------------|


  D5             F/D              Gsus2add4/D   C     G/B
   S S S S E S S  S S S S E S S   S S S S E S S S S E S S E
|-------------------------------|---------------------------|
|-^2h3-----3-----^0h1-----1-----|-------1-------------------|
|------2-----2--------2-----2---|-0h2-----2---------0-----0-|
|-^0-----0-----0-^0-----0-----0-|-0---0-----------2-----0---|
|-------------------------------|-----------0-2-3-----2-----|
|-------------------------------|---------------------------|
|
| Gtr III
|  W                              W
|-------------------------------|---------------------------|
|-------------------------------|---------------------------|
|-------------------------------|---------------------------|
|-------------------------------|---------------------------|
|-------------------------------|---------------------------|
|-------------------------------|---------------------------|


  Dm
   S S S S E   S S  S S S S E   S S    S S S S E S S  S S S S E S S
|-^1p0-------------^1p0-------------|-^1p0-----------^1p0--------------|
|----------3----------------3-------|----------3--------------3--------|
|------2-------2--------2-------2---|------2-----2--------2-----2------|
|-^0-----0-------0-^0-----0-------0-|-^0-----0-----0-^0-----0-----0----|
|-----------------------------------|----------------------------------|
|-----------------------------------|----------------------------------|
|
|  PM-----------------------------|
|  S S S S S S S S  S S S S S S S S    W
|-----------------------------------|----------------------------------|
|-----------------------------------|----------------------------------|
|--2-2-2-2-2-2-2-2--2-2-2-2-2-2-2-2-|--2-------------------------------|
|--0-0-0-0-0-0-0-0--0-0-0-0-0-0-0-0-|--0-------------------------------|
|--0-0-0-0-0-0-0-0--0-0-0-0-0-0-0-0-|--0-------------------------------|
|-----------------------------------|----------------------------------|


 Chorus
  D5       A5           Bb5              D5            Bb5      C5
  Gtr III
  Q  Q      E    E    E  E    +Q.    S S S S E Q       Q  Q     S S E Q
  |  |      |    |    |  |     |     | | | | | |       |  |     | | | |
  /  /      /    /    /  /     /     o o / / / /       /  /     / / / /

  Gtr I
  Q  E S S  S S  S S  E  E    +Q   E S S S S E E S S   Q  E S S S S E E E
|-5--5-5-5--1p0--0-0--0--1-|--(1)--1-1-1-5-5-5-5-5-5-|-1------------------|
|-6--6-6-6--3----1-1--1--3-|--(3)--3-3-3-6-6-6-6-6-6-|-3--3-3-3-5-5-5-5-5-|
|-7--7-7-7--2----2-2--2--3-|--(3)--3-3-3-7-7-7-7-7-7-|-3--3-3-3-5-5-5-5-5-|
|-7--7-7----0----2----2--3-|--(3)--3-3---7-7-7-7-7-7-|-3--3-3-3-5-5-5-5-5-|
|-5--5-----------0----0--1-|--(1)--1-----5-----5-----|-1--1-1---3-----3---|
|--------------------------|-------------------------|--------------------|
|
| Gtr VI
| W                            W                       W
|--------------------------|-------------------------|--------------------|
|--------------------------|-------------------------|--------------------|
|--------------------------|-------------------------|--------------------|
|--------------------------|-------------------------|--------------------|
|--------------------------|-------------------------|--------------------|
|--------------------------|-------------------------|--------------------|
|
| Gtr IV
|                              ~~~~
| H         E    E    E  E    +H         H             W
|----------15---15---15-17-|-(17)--------------------|--------------------|
|----------17---17---17-18-|-(18)--------------------|--------------------|
|-----------------------19-|-(19)--------------------|--------------------|
|--------------------------|-------------------------|--------------------|
|--------------------------|-------------------------|--------------------|
|--------------------------|-------------------------|--------------------|


  D5                            A5
   Q.                            E   +H
   |                             |    |
   /                             /    /

   S       S    S   S   E        E   +Q        E   E
|--5-------5----5---5---5-------^3---(3)-------3---3---|
|--6-------6----6---6---6-------^1---(1)-------1---1---|
|--7-------7----7---7---7-------^2---(2)-------2---2---|
|--7-------7----7---7---7-------^2---(2)-------2---2---|
|--5--------------------5-------^0---(0)-------0-------|
|------------------------------------------------------|
|
|  PM------------------------------------------------|
|  S       S    S   S   S    S   E.      S S S S S S S
|------------------------------------------------------|
|-----------------------3----x-------------------------|
|-------------------2----------------------------------|
|----------3----5------------------------------3-2-----|
|--5-----------------------------0-------0-3-5-----5-3-|
|------------------------------------------------------|
|
|               ~~~~~~~~~~~
|  S      +S   +E       S    S   E    H
|-13-----(13)-(13)----(13)-(13)-15--(15)---------------|
|-------------------------------17---17----------------|
|--9b10===(9)--(9)r----10---12---9---(9)---------------|
|------------------------------------------------------|
|------------------------------------------------------|
|------------------------------------------------------|


  D5       A5           Bb5              D5            Bb5      C5
  Q  Q      E    E    E  E    +Q.    S S S S E Q       Q  Q     S S E Q
  |  |      |    |    |  |     |     | | | | | |       |  |     | | | |
  /  /      /    /    /  /     /     o o / / / /       /  /     / / / /

  Q  E S S  S S  S S  E  E    +Q   E S S S S E E S S   Q  E S S S S E E E
|-5--5-5-5--1p0--0-0--0--1-|--(1)--1-1-1-5-5-5-5-5-5-|-1------------------|
|-6--6-6-6--3----1-1--1--3-|--(3)--3-3-3-6-6-6-6-6-6-|-3--3-3-3-5-5-5-5-5-|
|-7--7-7-7--2----2-2--2--3-|--(3)--3-3-3-7-7-7-7-7-7-|-3--3-3-3-5-5-5-5-5-|
|-7--7-7----0----2----2--3-|--(3)--3-3---7-7-7-7-7-7-|-3--3-3-3-5-5-5-5-5-|
|-5--5-----------0----0--1-|--(1)--1-----5-----5-----|-1--1-1---3-----3---|
|--------------------------|-------------------------|--------------------|
|
| Gtr VI
| W                            W                       W
|--------------------------|-------------------------|--------------------|
|--------------------------|-------------------------|--------------------|
|--------------------------|-------------------------|--------------------|
|--------------------------|-------------------------|--------------------|
|--------------------------|-------------------------|--------------------|
|--------------------------|-------------------------|--------------------|
|
|                              ~~~~
| H         E    E    E  E    +H         H             W
|----------15---15---15-17-|-(17)--------------------|--------------------|
|----------17---17---17-18-|-(18)--------------------|--------------------|
|-----------------------19-|-(19)--------------------|--------------------|
|--------------------------|-------------------------|--------------------|
|--------------------------|-------------------------|--------------------|
|--------------------------|-------------------------|--------------------|


  D5                            A5
   Q.                           +E    H
   |                             |    |
   /                             /    /

   S       S    S   S   E        E   +Q        E   E
|--5-------5----5---5---5-------^3---(3)-------3---3---|
|--6-------6----6---6---6-------^1---(1)-------1---1---|
|--7-------7----7---7---7-------^2---(2)-------2---2---|
|--7-------7----7---7---7-------^2---(2)-------2---2---|
|--5--------------------5-------^0---(0)-------0-------|
|------------------------------------------------------|
|
|  PM------------------------------------------------|
|  S       S    S   S   S    S   E.      S S S S S S S
|------------------------------------------------------|
|-----------------------3----x-------------------------|
|-------------------2----------------------------------|
|----------3----5------------------------------3-2-----|
|--5-----------------------------0-------0-3-5-----5-3-|
|------------------------------------------------------|
|
|               ~~~~~~~~~~~
|  S      +S   +E       S    S   E    H
|-13-----(13)-(13)----(13)-(13)-15--(15)---------------|
|-------------------------------17---17----------------|
|--9b10===(9)--(9)r----10---12---9---(9)---------------|
|------------------------------------------------------|
|------------------------------------------------------|
|------------------------------------------------------|


  D5       A5           Bb5              D5            Bb5      C5
  Q  Q      E    E    E  E    +Q.    S S S S E Q       Q  Q     S S E Q
  |  |      |    |    |  |     |     | | | | | |       |  |     | | | |
  /  /      /    /    /  /     /     o o / / / /       /  /     / / / /

  Q  E S S  S S  S S  E  E    +Q   E S S S S E E S S   Q  E S S S S E E E
|-5--5-5-5--1p0--0-0--0--1-|--(1)--1-1-1-5-5-5-5-5-5-|-1------------------|
|-6--6-6-6--3----1-1--1--3-|--(3)--3-3-3-6-6-6-6-6-6-|-3--3-3-3-5-5-5-5-5-|
|-7--7-7-7--2----2-2--2--3-|--(3)--3-3-3-7-7-7-7-7-7-|-3--3-3-3-5-5-5-5-5-|
|-7--7-7----0----2----2--3-|--(3)--3-3---7-7-7-7-7-7-|-3--3-3-3-5-5-5-5-5-|
|-5--5-----------0----0--1-|--(1)--1-----5-----5-----|-1--1-1---3-----3---|
|--------------------------|-------------------------|--------------------|
|
| W                            W                       W
|--------------------------|-------------------------|--------------------|
|--------------------------|-------------------------|--------------------|
|--------------------------|-------------------------|--------------------|
|--------------------------|-------------------------|--------------------|
|--------------------------|-------------------------|--------------------|
|--------------------------|-------------------------|--------------------|
|
|                              ~~~~
| H         E    E    E  E    +H         H             W
|----------15---15---15-17-|-(17)--------------------|--------------------|
|----------17---17---17-18-|-(18)--------------------|--------------------|
|-----------------------19-|-(19)--------------------|--------------------|
|--------------------------|-------------------------|--------------------|
|--------------------------|-------------------------|--------------------|
|--------------------------|-------------------------|--------------------|


  D5                            A5
   Q.                            E   +H
   |                             |    |
   /                             /    /

   S       S    S   S   E        E   +Q        E    E
|--5-------5----5---5---5-------^3---(3)-------3----3----|
|--6-------6----6---6---6-------^1---(1)-------1----1----|
|--7-------7----7---7---7-------^2---(2)-------2----2----|
|--7-------7----7---7---7-------^2---(2)-------2----2----|
|--5--------------------5-------^0---(0)-------0---------|
|--------------------------------------------------------|
|
|  PM-------------------------------------------------|
|  S       S    S   S   S    S   E.      S S S S S  S  S
|--------------------------------------------------------|
|-----------------------3----x---------------------------|
|-------------------2------------------------------------|
|----------3----5------------------------------3-2-------|
|--5-----------------------------0-------0-3-5------5--3-|
|--------------------------------------------------------|
|
|               ~~~~~~~~~~~
|  S      +S   +E       S    S   E    Q.            S  S
|-13-----(13)-(13)----(13)-(13)-15--(15)-----------13-12-|
|-------------------------------17---17------------------|
|--9b10===(9)--(9)r----10---12---9---(9)-----------10-12-|
|--------------------------------------------------------|
|--------------------------------------------------------|
|--------------------------------------------------------|


               Q=60
  Bb5          C5            D5
   H            H             W
   |            |             |
   /            /             /

   E S S E S S  E  E  E  E    W
|--1-1-1-1-1-1-------------|--5----|
|--3-3-3-3-3-3--5--5--5--5-|--6----|
|--3-3-3-3-3-3--5--5--5--5-|--7----|
|--3-3-3-3-3-3--5--5--5--5-|--7----|
|--1-----1------3--3--3--3-|--5----|
|--------------------------|-------|
|
| Gtr IV
|  ~~
|  H            E  E  E  E    W
|-10-----------15-15-15-15-|-13----|
|--------------13-13-13-13-|-------|
|-14-----------12-12-12-12-|-10----|
|--------------------------|-------|
|--------------------------|-------|
|--------------------------|-------|


 Outro
  Q=68                                    H.=H            Q=40
  D5             F/D              Gsus2add4/D   C     G/B
                                                             2/4
  Gtrs I, II
   S S S S E S S  S S S S E S S   S S S S E S S S S E S S E   +H
|-------------------------------|---------------------------|--------*|
|-^2h3-----3-----^0h1-----1-----|-------1-------------------|--------*|
|------2-----2--------2-----2---|-0h2-----2---------0-----0-|-(0)----*|
|-^0-----0-----0-^0-----0-----0-|-0-0-0-----------2-----0---|--------*|
|-------------------------------|-----------0-2-3-----2-----|--------*|
|-------------------------------|---------------------------|--------*|



Duration Legend
---------------
W - whole; H - half; Q - quarter; E - 8th; S - 16th; T - 32nd; X - 64th; a - acciaccatura
+ - note tied to previous; . - note dotted; .. - note double dotted
Uncapitalized letters represent notes that are staccato (1/2 duration)
Irregular groupings are notated above the duration line
Duration letters will always appear directly above the note/fret number it represents the
duration for.  Duration letters with no fret number below them represent rests.  Multi-
bar rests are notated in the form Wxn, where n is the number of bars to rest for.  Low
melody durations appear below the staff

Tablature Legend
----------------
 h   - hammer-on
 p   - pull-off
 b   - bend
 pb  - pre-bend
 r   - bend release (if no number after the r, then release immediately)
 /\  - slide into or out of (from/to "nowhere")
 s   - legato slide
 S   - shift slide
 - natural harmonic
[n]  - artificial harmonic
n(n) - tapped harmonic
 ~   - vibrato
 tr  - trill
 T   - tap
 TP  - trem. picking
 PM  - palm muting
\n/  - tremolo bar dip; n = amount to dip
 \n  - tremolo bar down
 n/  - tremolo bar up
/n\  - tremolo bar inverted dip
 =   - hold bend; also acts as connecting device for hammers/pulls
 <> - volume swell (louder/softer)
 x   - on rhythm slash represents muted slash
 o   - on rhythm slash represents single note slash

Misc Legend
-----------
 |  - bar
||  - double bar
||o - repeat start
o|| - repeat end
*|  - double bar (ending)
 :  - bar (freetime)
 $  - Segno
 &  - Coda
Tempo markers -  = BPM(8/16=s8/s16), where s8 = swing 8ths, s16 = swing 16ths





Comments


Popular Helloween tabs & chords
How Many Tears Bass Tabs
Kings Will Be Kings Bass Tabs
Still We Go 2 Bass Tabs
The Time Of The Oath Bass Tabs
Why Bass Tabs
A Little Time Tabs
I Want Out 1 Tabs
Just A Little Sign 1 Tabs
Forever And One Ukulele
Hold Me In Your Arms Ukulele


Song lyrics



↑ Back to top | Tablatures and chords are parodies/interpretations of the original songs. You may use it for private study, scholarship, research or language learning purposes only
© 2014 AZChords.com Contact us | Privacy policy | DMCA | Add/correct tabs | Request tabs | Top 50 tabs