» » »

Helloween, If I Could Fly Tabs (ver.1)

Artists:  A B C D E F G H I J K L M N O P Q R S T U V W X Y Z # 

If I Could Fly Tabs (ver.1)

Helloween Tabs
 Rating:
4/5 (4 votes)
If I Could Fly lessons Tabs too difficult? Try these video lessons and learn fast
1
                i didn´t worte the rythem down


intro it´s played with a piano but u can even play it with ur guitar.


e----8-7----8-7----------5-7--8-7---8-7---------5-7--7-8-7-10-8-10-12----|
B--------5------5----8-5----------5-----5---8-5--------------------------|
G------------------7----------------------7------------------------------|
D------------------------------------------------------------------------|
A------------------------------------------------------------------------|
E------------------------------------------------------------------------|


then the guitar comes in  ( verse/chorus )

e------------------------------------------------------------------|
B------------------------------------------------------------------|
G--------------------------------------------------------7-----7---|
D-7-7-7-7-7-7-7-7--5-5-5-5-5-5-5-5--2-2-2-2-2-2-2-2------7-----7---|
A-7-7-7-7-7-7-7-7--5-5-5-5-5-5-5-5--2-2-2-2-2-2-2-2------5-----5---|
E-5-5-5-5-5-5-5-5--3-3-3-3-3-3-3-3--0-0-0-0-0-0-0-0--0-0---0-0-----|


then during the solo ( i don´t know the solo )

e--------------------|
B--------------------|
G--------------------|
D--7-7-7-7--3-3-3-3--|
A--7-7-7-7--3-3-3-3--|
E--5-5-5-5--1-1-1-1--|



after the solo


e--------------------------------------------|
B--------------------------------------------|
G--------------------------------------------|
D--7---5---3-3-3-3--7---5------------7---5---|
A--7---5---3-3-3-3--7---5---3-3-3-3--7---5---|
E--5-x-3-x-1-1-1-1--5-x-3-x-1-1-1-1--5-x-3---|
            
Submit corrections

comments powered by Disqus
↑ Back to top | Helloween Tabs for If I Could Fly. Lyrics for acoustic guitar and electric guitar. 1 Tablatures and chords are parodies/interpretations of the original songs. You may use it for private study, scholarship, research or language learning purposes only