>
 >
Eagle Fly Free 1

Eagle Fly Free 1 Bass Tabs

Helloween - Eagle Fly Free 1 chords, tabs, tablatures, lyrics

Guitar lessons | Add/correct | Request | Top 50 tabs Artists:  A B C D E F G H I J K L M N O P Q R S T U V W X Y Z 0-9

Eagle Fly Free 1 Bass Tabs – Helloween

CD, Sheet music, Poster

Do you like Eagle Fly Free 1? Share with your friends now
Bass TabsBass Tabs v2ChordsTabsUkulele

EAGLE FLY FREE (Bassline)
As recorded by Helloween
(From the 1988 Album KEEPER OF THE SEVEN KEYS PT. 2)

	

Words and Music by Michael Weikath
Arranged by Helloween

Gtr I (E A D G) - 'Untitled'

 Intro
  Q=157
 4/4
          Gtr I
  H    Q  E E   Q  Q  Q  Q    Q  Q  Q  E E   +E  E Q  Q  Q    Q  Q  Q  E E
|-------------|-------------|--------------|----------------|---------------|
|-------------|-------------|------------0-|-(0)-0----------|----------0----|
|-------------|-------------|--------------|----------------|------------2--|
|-----------0-|-0--------0--|-0------------|-------------0--|-0-------------|


  E E E E E E E E   E E E E E E E E   Q  Q  Q  Q    Q  +Q    Q   +Q
|-----------------|-----------------|-------------|--------------------|
|-----------------|-----------------|----------1--|-2--(2)S=14--(14)\--|
|-----------------|---------------2-|-3-----2-----|--------------------|
|-0-0-0-0-0-0-0-0-|-0-0-0-0-0-0-3---|----3--------|--------------------|


   Verse 1
    E S S E S S E S S E S S   E S S E S S E S S E S S
||--------------------------|-------------------------|
||o-0-0-0-0-0-0-0-0-0-0-0-0-|-0-0-0-0-0-0-0-0-0-0-0-0-|
||o-------------------------|-------------------------|
||--------------------------|-------------------------|


  E S S E S S E S S E S S   E S S E S S E S S E S S
|-------------------------|---------------------------|
|-------------------------|-------------2-2-2-2-2-2---|
|-3-3-3-3-3-3-3-3-3-3-3-3-|-3-3-3-3-3-3---------------|
|-------------------------|---------------------------|


  E S S E S S E S S E S S   E S S E S S E S S E S S
|-------------------------|-------------------------|
|-0-0-0-0-0-0-0-0-0-0-0-0-|-0-0-0-0-0-0-0-0-0-0-0-0-|
|-------------------------|-------------------------|
|-------------------------|-------------------------|


  E S S E S S E S S E S S   E S S E S S E S S E S S
|-------------------------|----------------------------|
|-------------------------|----------------------------|
|-1-1-1-1-1-1-------------|-0-0-0-0-0-0-4-4-4-4-4-4----|
|-------------1-1-1-1-1-1-|----------------------------|


  S S S S S S S S S S S S S S S S
|---------------------------------|
|-----------------3-3-2-2-0-0-----|
|-5-5-0-0-3-3-0-0-------------3-3-|
|---------------------------------|


 1.                                  2.
  S S S S S S S S S S S S S S S S     S S S S S S S S S S S S S S S S
|----------------------------------||---------------------------------|
|-----------------3-3-2-2-0-0-----o||-0-0-----------------------------|
|-5-5-0-0-3-3-0-0-------------3-3-o||-----3-3-1-1-0-0-----------------|
|----------------------------------||-----------------3-3-1-1-0-0-1-1-|


 Pre-Chorus
  $
  $$
   E  E  E  E  E  E  E  E    E  E  E  E  E  E  E  E
|----14-12----------------|----14-12----------------|
|-12-------14-15-12-14----|-12-------14----15-14-12-|
|----------------------15-|-------------13----------|
|-------------------------|-------------------------|


   E  E  E  E  E  E  E  E    E  E  E  E  E  E  E  E    E  E  E  E  E  E  E  E
|----12-------------------|----12-------------------|----14-12----------------|
|-------15-14-15-12-14----|-------15-14-12-14-15-14-|-12-------14-15-12-14----|
|-15-------------------15-|-15----------------------|----------------------15-|
|-------------------------|-------------------------|-------------------------|


   E  E  E  E  E  E  E  E    Q   Q   Q   Q     S  S  S  S  S  S  S  S  S  S  S  S  S  S  S  S
|----14-12----------------|-----------------|-------------------------------------------------|
|-12-------14----15-14-12-|-------------11--|-12-12-------------------15-15-14-14-12-12-------|
|-------------13----------|-13------12------|-------12-12-15-15-12-12-------------------15-15-|
|-------------------------|-----13----------|-------------------------------------------------|


   S  S  S  S  S  S  S  S  S  S  S  S  S  S  S  S
|-------------------------------------------12-12----|
|-------------------------12-12-14-14-15-15----------|
|-------12-12-13-13-15-15----------------------------|
|-15-15----------------------------------------------|


 Chorus
  E S S E S S E S S E S S   E S S E S S E S S E S S
|-------------------------|-------------------------|
|-------------------------|-------------------------|
|-------------------------|-3-3-3-3-3-3-4-4-4-4-4-4-|
|-1-1-1-1-1-1-1-1-1-1-1-1-|-------------------------|


  E S S E S S E S S E S S   E S S E S S E S S E S S
|-------------------------|----------------------------|
|-0-0-0-0-0-0-0-0-0-0-0-0-|----------------------------|
|-------------------------|-0-0-0-0-0-0----------------|
|-------------------------|-------------0-0-0-0-0-0----|


                                        To Dbl. Coda
  E S S E S S E S S E S S   E S S E S S E S S E S S
|-------------------------|-------------------------|
|-------------------------|-------------------------|
|-1-1-1-1-1-1-1-1-1-1-1-1-|-------------------------|
|-------------------------|-1-1-1-1-1-1-1-1-1-1-1-1-|


  E S S E S S E S S E S S   E S S E S S E E E E
|-------------------------|-------------0-0-0-0--|
|-------------0-0-0-0-0-0-|-2-2-2-2-2-2----------|
|-3-3-3-3-3-3-------------|----------------------|
|-------------------------|----------------------|


  E S S E S S E S S E S S   E S S E S S E S S E S S
|-------------------------|-------------------------|
|-------------------------|-------------------------|
|-------------------------|-3-3-3-3-3-3-4-4-4-4-4-4-|
|-1-1-1-1-1-1-1-1-1-1-1-1-|-------------------------|


  E S S E S S E S S E S S   E S S E S S E S S E S S
|-------------------------|----------------------------|
|-0-0-0-0-0-0-0-0-0-0-0-0-|----------------------------|
|-------------------------|-0-0-0-0-0-0----------------|
|-------------------------|-------------0-0-0-0-0-0----|


  E S S E S S E S S E S S   E S S E S S E S S E S S
|-------------------------|-------------------------|
|-------------------------|-------------------------|
|-1-1-1-1-1-1-1-1-1-1-1-1-|-3-3-3-3-3-3-3-3-3-3-3-3-|
|-------------------------|-------------------------|


                                   To Coda
  E S S E S S E S S E S S   E E E E E E E E
|-------------------------|-----------------|
|-------------------------|-----------------|
|-------------------------|---------0---0---|
|-1-1-1-1-1-1-1-1-1-1-1-1-|-1-3-1-3---3---3-|


   Verse 2
    E S S E S S E S S E S S   E S S E S S E S S E S S
||--------------------------|-------------------------|
||o-0-0-0-0-0-0-0-0-0-0-0-0-|-0-0-0-0-0-0-0-0-0-0-0-0-|
||o-------------------------|-------------------------|
||--------------------------|-------------------------|


  E S S E S S E S S E S S   E S S E S S E S S E S S
|-------------------------|---------------------------|
|-------------------------|-------------2-2-2-2-2-2---|
|-3-3-3-3-3-3-3-3-3-3-3-3-|-3-3-3-3-3-3---------------|
|-------------------------|---------------------------|


  E S S E S S E S S E S S   E S S E S S E S S E S S
|-------------------------|-------------------------|
|-0-0-0-0-0-0-0-0-0-0-0-0-|-0-0-0-0-0-0-0-0-0-0-0-0-|
|-------------------------|-------------------------|
|-------------------------|-------------------------|


  E S S E S S E S S E S S   E S S E S S E S S E S S
|-------------------------|----------------------------|
|-------------------------|----------------------------|
|-1-1-1-1-1-1-------------|-0-0-0-0-0-0-4-4-4-4-4-4----|
|-------------1-1-1-1-1-1-|----------------------------|


  S S S S S S S S S S S S S S S S
|---------------------------------|
|-----------------3-3-2-2-0-0-----|
|-5-5-0-0-3-3-0-0-------------3-3-|
|---------------------------------|


 1.                                  2.
                                                        D.S. al Coda
  S S S S S S S S S S S S S S S S     S S S S S S S S S S S S S S S S
|----------------------------------||---------------------------------|
|-----------------3-3-2-2-0-0-----o||-0-0-----------------------------|
|-5-5-0-0-3-3-0-0-------------3-3-o||-----3-3-1-1-0-0-----------------|
|----------------------------------||-----------------3-3-1-1-0-0-1-1-|


   Guitar Solo
    &
     S  E  S  E  S  S  +S   S  E  E  E    S  E  S  E  S  S  +S   S  E  E  E
||-------------------------------------|-------12-12-14-14-(14)-14-12-14----|
||o-12-12-14-14-15-15-(15)-15-14-15----|-15-15---------------------------14-|
||o---------------------------------15-|------------------------------------|
||-------------------------------------|------------------------------------|


   S  E  S  E  S  S  +S   S  E  E  E    E.  S  +E   E  +H        E.  S  +E   E  +H
|------------------------------------|-------------14-(14)----|-------------12-(12)-----||
|-------------12-12-(12)-12----12----|-----14-(14)------------|------------------------o||
|-13-13-15-15---------------15----13-|-12---------------------|-15--15-(15)------------o||
|------------------------------------|------------------------|-------------------------||


 Guitar Break
  S S S S S S S S S S S S S S S S   S S S S S S S S S S S S S S S S
|---------------------------------|---------------------------------|
|-2-2-2-2-2-2-2-2-2-2-2-2-2-2-2-2-|-0-0-0-0-0-0-0-0-0-0-0-0-0-0-0-0-|
|---------------------------------|---------------------------------|
|---------------------------------|---------------------------------|


  S S S S S S S S S S S S S S S S   S S S S S S S S S S S S S S S S
|---------------------------------|---------------------------------|
|-2-2-2-2-2-2-2-2-2-2-2-2-2-2-2-2-|---------------------5-5-4-4-4-4-|
|---------------------------------|-3-3-3-3-3-3-3-3-5-5-------------|
|---------------------------------|---------------------------------|


  S S S S S S S S S S S S S S S S   S S S S S S S S S S S S E E
|---------------------------------|---------------------------0-|
|-2-2-2-2-2-2-2-2-2-2-2-2-2-2-2-2-|-0-0-0-0-0-0-0-0-0-0-0-0-0---|
|---------------------------------|-----------------------------|
|---------------------------------|-----------------------------|


  S S S S S S S S S S S S S S S S   S S S S S S S S S S S S S S S S
|---------------------------------|---------------------------------|
|-2-2-2-2-2-2-2-2-2-2-2-2-2-2-2-2-|---------------------5-5-4-4-4-4-|
|---------------------------------|-3-3-3-3-3-3-3-3-5-5-------------|
|---------------------------------|---------------------------------|


 Bass Solo
   S S  S S  S S  S S  S S  S S  S S  S S
|-16p9h12p9h16p9h12p9h16p9h12p9h16p9h12p9h|
|-----------------------------------------|
|-----------------------------------------|
|-----------------------------------------|


   S S  S S  S S  S S  S S  S S  S S  S S
|-16p9h12p9h16p9h12p9h14p9h12p9h14p9h12p9S=|
|------------------------------------------|
|------------------------------------------|
|------------------------------------------|


  S  S  S  S  S  S S S  S  S  S  S  S  S S S
|-7h11h14p11h14p11p9p7h14p11h14p11h14p11p9p7h|
|--------------------------------------------|
|--------------------------------------------|
|--------------------------------------------|


   S  S  S  S  S  S S S  S  S  S  S  S  S S S
|-14p11h14p11p14p11p9p7h14p11h14p11h14p11p9p7h=|
|----------------------------------------------|
|----------------------------------------------|
|----------------------------------------------|


  E  S S  S S  S S  S S  S S  S S  S S
|-9h12p9h16p9h12p9h16p9h12p9h16p9h12p9-|
|--------------------------------------|
|--------------------------------------|
|--------------------------------------|


   S S  S S  S S  S S  S S  S S  S S  S S
|-16p9h12p9h16p9h12p9h16p9h12p9h16p9h12p9h==|
|-------------------------------------------|
|-------------------------------------------|
|-------------------------------------------|


   S S S S  S S S S  S S S S  S S S S    S S S S  S S S S  S S S S  S S S S
|-11p7h9p7h11p7h9p7h11p7h9p7h11p7h9p7-|-11p7h9p7h11p7h9p7h11p7h9p7h11p7h9p7-|
|-------------------------------------|-------------------------------------|
|-------------------------------------|-------------------------------------|
|-------------------------------------|-------------------------------------|


  E E E E E E E E   E E E E E E E E
|---------0-2-4-2-|-0-2-0---0-------|
|-2-0-2-4---------|-------4---4-0---|
|-----------------|-----------------|
|-----------------|-----------------|


   Guitar Solo 2
     S  E  S  E  S  S  +S   S  E  S  S  E    S  E  S  E  S  S  +S   S  E  E  E
||----------------------------------------|-------12-12-14-14-(14)-14-12-14----|
||o-12-12-14-14-15-15-(15)-15-14-15-14----|-15-15---------------------------14-|
||o------------------------------------15-|------------------------------------|
||----------------------------------------|------------------------------------|


   S  E  S  E  S  S  +S   S  E  E  E    E.  S  +E   E  +H        E.  S  +E   E  +H
|------------------------------------|-------------14-(14)----|-------------12-(12)-----||
|-------------12-12-(12)-12----12----|-----14-(14)------------|------------------------o||
|-13-13-15-15---------------15----13-|-12---------------------|-15--15-(15)------------o||
|------------------------------------|------------------------|-------------------------||


 Drum Break
  Q  Q  H      H    H      Q  Q  H      H    H      Q  Q  H
|------------|-----------|------------|-----------|------------|
|------------|-----------|------------|-----------|------------|
|-5----------|-----------|-3----------|-----------|-5----------|
|------------|------3----|------------|------5----|------------|


  H    Q  E E   Q  Q  Q  E E   Q  Q  Q  Q
|-------------|--------------|-------------|
|-------------|--------------|-------------|
|-------------|-3------------|-1-----0--4--|
|-----------3-|------------1-|----1--------|


                   D.S.S. al Dbl. Coda
  E E E E  E E E  E   E  E E E  E E E E
|-----7---10-9-7----|-7-----------------|
|---7---7--------10-|---10-9-7----------|
|-5-----------------|----------10-9-7-9-|
|-------------------|-------------------|


  &&
  E S S E S S E S S E S S   E S S E S S E E E E
|-------------------------|-------------0-0-0-0-|
|-------------0-0-0-0-0-0-|-2-2-2-2-2-2---------|
|-3-3-3-3-3-3-------------|---------------------|
|-------------------------|---------------------|


  E S S E S S E S S E S S   E S S E S S E S S E S S
|-------------------------|--------------------------|
|-------------------------|--------------------------|
|-------------------------|-3-3-3-3-3-3-4-4-4-4-4-4--|
|-1-1-1-1-1-1-1-1-1-1-1-1-|--------------------------|


  E S S E S S E S S E S S   E S S E S S E S S E S S
|-------------------------|-------------------------|
|-0-0-0-0-0-0-0-0-0-0-0-0-|-------------------------|
|-------------------------|-0-0-0-0-0-0-------------|
|-------------------------|-------------0-0-0-0-0-0-|


  E S S E S S E S S E S S   E S S E S S E S S E S S
|-------------------------|----------------------------|
|-------------------------|----------------------------|
|-1-1-1-1-1-1-1-1-1-1-1-1-|-3-3-3-3-3-3-3-3-3-3-3-3----|
|-------------------------|----------------------------|


  E S S E S S E S S E S S   E S S E S S E S S E S S
|-------------------------|-------------------------|
|-------------------------|-------------------------|
|-------------------------|-------------------------|
|-1-1-1-1-1-1-1-1-1-1-1-1-|-1-1-1-1-1-1-1-1-1-1-1-1-|


  E S S E S S E S S E S S   E S S E S S E S S E S S
|-------------------------|----------------------------|
|-------------------------|----------------------------|
|-1-1-1-1-1-1-1-1-1-1-1-1-|-3-3-3-3-3-3-3-3-3-3-3-3----|
|-------------------------|----------------------------|


  E S S E S S E S S E S S   E S S E S S E S S E S S
|-------------------------|-------------------------|
|-0-0-0-0-0-0-0-0-0-0-0-0-|-0-0-0-0-0-0-0-0-0-0-0-0-|
|-------------------------|-------------------------|
|-------------------------|-------------------------|


  E S S E S S E S S E S S   E S S E S S E S S E S S
|-------------------------|----------------------------|
|-------------------------|----------------------------|
|-1-1-1-1-1-1-1-1-1-1-1-1-|-3-3-3-3-3-3-3-3-3-3-3-3----|
|-------------------------|----------------------------|


  E S S E S S E S S E S S   E S S E S S E S S E S S   E S S E S S E S S E S S
|-------------------------|-------------------------|--------------------------|
|-0-0-0-0-0-0-0-0-0-0-0-0-|-------------------------|--------------------------|
|-------------------------|-------------------------|-1-1-1-1-1-1-1-1-1-1-1-1--|
|-------------------------|-3-3-3-3-3-3-3-3-3-3-3-3-|--------------------------|


  S S S S S S S S S S S S S S S S   S S S S S S S S S S S S S S S S
|---------------------------------|---------------------------------|
|---------------------------------|---------------------------------|
|-3-3-3-3-3-3-3-3-3-3-3-3-3-3-3-3-|-3-3-3-3-3-3-3-3-3-3-3-3-3-3-3-3-|
|---------------------------------|---------------------------------|


  S S S S S S S S S S S S S S S S   S S S S S S S S S S S S S S S S
|---------------------------------|---------------------------------|
|---------------------------------|---------------------------------|
|-3-3-3-3-3-3-3-3-3-3-3-3-3-3-3-3-|-3-3-3-3-3-3-3-3-3-3-3-3-3-3-3-3-|
|---------------------------------|---------------------------------|


 Outro
  E S S E S S E S S E S S   E S S E S S E S S E S S
|-------------------------|-------------------------|
|-------------------------|-------------------------|
|-------------------------|-3-3-3-3-3-3-4-4-4-4-4-4-|
|-1-1-1-1-1-1-1-1-1-1-1-1-|-------------------------|


                                                      H.=H
  E S S E S S E S S E S S   E S S E S S E S S E S S   W
|-------------------------|-------------------------|------|
|-0-0-0-0-0-0-0-0-0-0-0-0-|-------------------------|------|
|-------------------------|-0-0-0-0-0-0-------------|-1----|
|-------------------------|-------------0-0-0-0-0-0-|------|


  Free Tempo ca Q=80
             TP TP TP TP   TP TP TP TP   TP TP TP
  W          Q  Q  Q  Q    Q  Q  Q  Q    Q  Q  Q  Q    Q   Q  H
|----------|-------------|-------------|-------------|-------------*|
|----------|-3--3--3--3--|-3--3--3--3--|-3--3--3--3--|-3\----------*|
|-3--------|-------------|-------------|-------------|-------------*|
|----------|-------------|-------------|-------------|-------------*|



Duration Legend
---------------
W - whole; H - half; Q - quarter; E - 8th; S - 16th; T - 32nd; X - 64th; a - acciaccatura
+ - note tied to previous; . - note dotted; .. - note double dotted
Uncapitalized letters represent notes that are staccato (1/2 duration)
Irregular groupings are notated above the duration line
Duration letters will always appear directly above the note/fret number it represents the
duration for.  Duration letters with no fret number below them represent rests.  Multi-
bar rests are notated in the form Wxn, where n is the number of bars to rest for.  Low
melody durations appear below the staff

Tablature Legend
----------------
 h   - hammer-on
 p   - pull-off
 b   - bend
 pb  - pre-bend
 r   - bend release (if no number after the r, then release immediately)
 /\  - slide into or out of (from/to "nowhere")
 s   - legato slide
 S   - shift slide
 - natural harmonic
[n]  - artificial harmonic
n(n) - tapped harmonic
 ~   - vibrato
 tr  - trill
 T   - tap
 TP  - trem. picking
 PM  - palm muting
\n/  - tremolo bar dip; n = amount to dip
 \n  - tremolo bar down
 n/  - tremolo bar up
/n\  - tremolo bar inverted dip
 =   - hold bend; also acts as connecting device for hammers/pulls
 <> - volume swell (louder/softer)
 x   - on rhythm slash represents muted slash
 o   - on rhythm slash represents single note slash

Misc Legend
-----------
 |  - bar
||  - double bar
||o - repeat start
o|| - repeat end
*|  - double bar (ending)
 :  - bar (freetime)
 $  - Segno
 &  - Coda
Tempo markers -  = BPM(8/16=s8/s16), where s8 = swing 8ths, s16 = swing 16ths





Comments


Popular Helloween tabs & chords
Cry For Freedom Bass Tabs
How Many Tears Bass Tabs
Just A Little Sign 3 Bass Tabs
Lavdate Dominvm 2 Bass Tabs
Rise And Fall Bass Tabs
Time Goes By Chords
Future World Tabs
Gorgar Tabs
If I Could Fly 1 Tabs
Where The Rain Grows 1 Tabs


Song lyrics



↑ Back to top | Tablatures and chords are parodies/interpretations of the original songs. You may use it for private study, scholarship, research or language learning purposes only
© 2014 AZChords.com Contact us | Privacy policy | DMCA | Add/correct tabs | Request tabs | Top 50 tabs