» » »

Heideroosjes, Regular Day In Bosnia Tabs (ver.1)

Artists:  A B C D E F G H I J K L M N O P Q R S T U V W X Y Z # 

Regular Day In Bosnia Tabs (ver.1)

Heideroosjes Tabs
 Rating:
4/5 (4 votes)
Regular Day In Bosnia lessons Tabs too difficult? Try these video lessons and learn fast
1
                Tuning: Standard (e,B,G,D,A,E)

Hi, this song is very easy to play, but you have to listen carefuly to the Rythm Guitar 
the song!

The Intro and the Palm Mute-Riff are from the Lead Guitar (Frank), Everything else is 
the Rythm Guitar (Marco).

It looks very difficult, but if you play the song while the music plays it's very easy.
I'm 100% sure that this tab is right.
I've found the Intro by myself, I've learned all the other riffs etc. by watching them 
Have fun!

[INTRO (First part)]

e|-----------------|-----------------|-----------------|-----------------|
B|-----------------|-----------------|-----------------|-----------------|
G|-----------------|-----------------|-----------------|-----------------|
D|-----7-----------|-----------------|-----------------|-----------------|
A|-0-----8--10-----|-----------------|-----------------|-----------------|
E|-----------------|-----------------|-----------------|-----------------|

e|-----------------|-----------------|-----------------|-----------------|
B|-----------------|-----------------|-----------------|-----------------|
G|-----------------|-----------------|-----------------|-----------------|
D|-----7-----------|-----------------|-----------------|-----------------|
A|-0-----8--7------|-----------------|-----------------|-----------------|
E|-----------------|-----------------|-----------------|-----------------|

e|-----------------|-----------------|-----------------|-----------------|
B|-----------------|-----------------|-----------------|-----------------|
G|-----------------|-----------------|-----------------|-----------------|
D|-----7-----------|-----------------|-----------------|-----------------|
A|-0-----8--10-----|-----------------|-----------------|-----------------|
E|-----------------|-----------------|-----------------|-----------------|

e|-----------------|-----------------|-----------------|-----------------|
B|-----------------|-----------------|-----------------|-----------------|
G|-----------------|-----------------|-----------------|-----------------|
D|-----7-----------|-----------------|-----------------|-----------------|
A|-0-----8--7------|-----------------|-----------------|-----------------|
E|-----------------|-----------------|-----------------|-----------------|


[INTRO (Second part)]

e|-----------------|-----------------|-----------------|-----------------|
B|-----------------|-----------------|-----------------|-----------------|
G|-----------------|-----------------|-----------------|-----------------|
D|-----7-----------|-----------------|-----------------|-----------------|
A|-0-----0-8--10-8-|-----------------|-----------------|-----------------|
E|-----------------|-----------------|-----------------|-----------------|

e|-----------------|-----------------|-----------------|-----------------|
B|-----------------|-----------------|-----------------|-----------------|
G|-----------------|-----------------|-----------------|-----------------|
D|-----7-----------|-----------------|-----------------|-----------------|
A|-0-----0-8-7-----|-----------------|-----------------|-----------------|
E|-----------------|-----------------|-----------------|-----------------|

e|-----------------|-----------------|-----------------|-----------------|
B|-----------------|-----------------|-----------------|-----------------|
G|-----------------|-----------------|-----------------|-----------------|
D|-----7-----------|-----------------|-----------------|-----------------|
A|-0-----0-8--10-8-|-----------------|-----------------|-----------------|
E|-----------------|-----------------|-----------------|-----------------|

e|-----------------|-----------------|-----------------|-----------------|
B|-----------------|-----------------|-----------------|-----------------|
G|-----------------|-----------------|-----------------|-----------------|
D|-----7-----------|-----------------|-----------------|-----------------|
A|-0-----0-8-7-----|-----------------|-----------------|-----------------|
E|-----------------|-----------------|-----------------|-----------------|

(End of Intro)
(Vocals begin)


e|-----------------|-----------------|-----------------|-----------------|
B|-----------------|-----------------|-----------------|-----------------|
G|-----------------|-----------------|-----------------|-----------------|
D|-----------------|-----------------|-----------------|-----------------|
A|--0---0---0---0--|-----------------|-----------------|-----------------|
E|-----------------|-----------------|-----------------|-----------------|




[CHORUS PART 1: x4]

(first part: x8)
e|-----------------|-----------------|-----------------|-----------------|
B|-----------------|-----------------|-----------------|-----------------|
G|-----------------|-----------------|-----------------|-----------------|
D|-7--9------------|-----------------|-----------------|-----------------|
A|-7--9------------|-----------------|-----------------|-----------------|
E|-----------------|-----------------|-----------------|-----------------|

(Second part: x1)
e|-----------------|-----------------|-----------------|-----------------|
B|-----------------|-----------------|-----------------|-----------------|
G|-----------------|-----------------|-----------------|-----------------|
D|-5--7-----5--7---|-5--7-----3--5---|-3--5---3--5-----|-----------------|
A|-5--7-----5--7---|-5--7-----3--5---|-3--5---3--5-----|-----------------|
E|-----------------|-----------------|-----------------|-----------------|


[CHORUS PART 2: x4]

(first part: x8)
e|-----------------|-----------------|-----------------|-----------------|
B|-----------------|-----------------|-----------------|-----------------|
G|-7--9------------|-----------------|-----------------|-----------------|
D|-7--9------------|-----------------|-----------------|-----------------|
A|-----------------|-----------------|-----------------|-----------------|
E|-----------------|-----------------|-----------------|-----------------|

(second part: x1)
e|-----------------|-----------------|-----------------|-----------------|
B|-----------------|-----------------|-----------------|-----------------|
G|-5--7-----5--7---|-5--7-----3--5---|-3--5---3--5-----|-----------------|
D|-5--7-----5--7---|-5--7-----3--5---|-3--5---3--5-----|-----------------|
A|-----------------|-----------------|-----------------|-----------------|
E|-----------------|-----------------|-----------------|-----------------|

(End of Chorus)

e|-----------------|-----------------|-----------------|-----------------|
B|-----------------|-----------------|-----------------|-----------------|
G|-----------------|-----------------|-----------------|-----------------|
D|-----------------|-----------------|-----------------|-----------------|
A|--0---0---0---0--|-----------------|-----------------|-----------------|
E|-----------------|-----------------|-----------------|-----------------|




[CHORUS PART 1: x4]

(first part: x8)
e|-----------------|-----------------|-----------------|-----------------|
B|-----------------|-----------------|-----------------|-----------------|
G|-----------------|-----------------|-----------------|-----------------|
D|-7--9------------|-----------------|-----------------|-----------------|
A|-7--9------------|-----------------|-----------------|-----------------|
E|-----------------|-----------------|-----------------|-----------------|

(Second part: x1)
e|-----------------|-----------------|-----------------|-----------------|
B|-----------------|-----------------|-----------------|-----------------|
G|-----------------|-----------------|-----------------|-----------------|
D|-5--7-----5--7---|-5--7-----3--5---|-3--5---3--5-----|-----------------|
A|-5--7-----5--7---|-5--7-----3--5---|-3--5---3--5-----|-----------------|
E|-----------------|-----------------|-----------------|-----------------|


[CHORUS PART 2: x4]

(first part: x8)
e|-----------------|-----------------|-----------------|-----------------|
B|-----------------|-----------------|-----------------|-----------------|
G|-7--9------------|-----------------|-----------------|-----------------|
D|-7--9------------|-----------------|-----------------|-----------------|
A|-----------------|-----------------|-----------------|-----------------|
E|-----------------|-----------------|-----------------|-----------------|

(second part: x1)
e|-----------------|-----------------|-----------------|-----------------|
B|-----------------|-----------------|-----------------|-----------------|
G|-5--7-----5--7---|-5--7-----3--5---|-3--5---3--5-----|-----------------|
D|-5--7-----5--7---|-5--7-----3--5---|-3--5---3--5-----|-----------------|
A|-----------------|-----------------|-----------------|-----------------|
E|-----------------|-----------------|-----------------|-----------------|

(End of Chorus)

PALM MUTED:

(x3)
e|-----------------|-----------------|-----------------|-----------------|
B|-----------------|-----------------|-----------------|-----------------|
G|-----------------|-----------------|-----------------|-----------------|
D|-----------------|-----------------|-----------------|-----------------|
A|-8-8-8-8-8-8-8-8-|--6-6-6--4-4-4---|-----------------|-----------------|
E|-----------------|-----------------|-----------------|-----------------|

(Stop Palm Mute)

[CHORUS PART 1: x4]

(first part: x8)
e|-----------------|-----------------|-----------------|-----------------|
B|-----------------|-----------------|-----------------|-----------------|
G|-----------------|-----------------|-----------------|-----------------|
D|-7--9------------|-----------------|-----------------|-----------------|
A|-7--9------------|-----------------|-----------------|-----------------|
E|-----------------|-----------------|-----------------|-----------------|

(Second part: x1)
e|-----------------|-----------------|-----------------|-----------------|
B|-----------------|-----------------|-----------------|-----------------|
G|-----------------|-----------------|-----------------|-----------------|
D|-5--7-----5--7---|-5--7-----3--5---|-3--5---3--5-----|-----------------|
A|-5--7-----5--7---|-5--7-----3--5---|-3--5---3--5-----|-----------------|
E|-----------------|-----------------|-----------------|-----------------|


[CHORUS PART 2: x4]

(first part: x8)
e|-----------------|-----------------|-----------------|-----------------|
B|-----------------|-----------------|-----------------|-----------------|
G|-7--9------------|-----------------|-----------------|-----------------|
D|-7--9------------|-----------------|-----------------|-----------------|
A|-----------------|-----------------|-----------------|-----------------|
E|-----------------|-----------------|-----------------|-----------------|

(second part: x1)
e|-----------------|-----------------|-----------------|-----------------|
B|-----------------|-----------------|-----------------|-----------------|
G|-5--7-----5--7---|-5--7-----3--5---|-3--5---3--5-----|-----------------|
D|-5--7-----5--7---|-5--7-----3--5---|-3--5---3--5-----|-----------------|
A|-----------------|-----------------|-----------------|-----------------|
E|-----------------|-----------------|-----------------|-----------------|

(End of Song)
            
Submit corrections

comments powered by Disqus
↑ Back to top | Heideroosjes Tabs for Regular Day In Bosnia. Lyrics for acoustic guitar and electric guitar. 1 Tablatures and chords are parodies/interpretations of the original songs. You may use it for private study, scholarship, research or language learning purposes only