» » »

Heideroosjes, O.P.A Tabs (ver.2)

Artists:  A B C D E F G H I J K L M N O P Q R S T U V W X Y Z # 

O.P.A Tabs (ver.2)

Heideroosjes Tabs
 Rating:
4/5 (4 votes)
O.P.A lessons Tabs too difficult? Try these video lessons and learn fast
                Band: De Heideroosjes



INTRO

e---------------------------------------------------------------------------|
B---------------------------------------------------------------------------|
G-----4-------5-------7-------5-------4-------5-------7-------7-------------|
D-------5---5---5---7---7---5---5-------5---5---5---7---7---7---7-----------|
A---5-----3-------5-------3---------5-----3-------5-------5-----------------|
E-3-------------------------------3-----------------------------------------|


VERSE1

   (guitar same as intro)

Opa was tachtig, fysiek nog heel sterk
Ging elke zondag te voet van huis naar kerk
Dagen zat hij voor het raam, hij groette iedereen
Altijd kinderen over de vloer en mensen om hem heen
Maar op een dag besliste kleinzoon, opa was te oud
Kleinzoon kocht het huis en heeft het toen verbouwd
Opa werd getransporteerd naar een bejaardenflat
Daar kreeg hij op dertien hoog een kamer met een bed
Aan verzorging had opa beslist geen gebrek
Drie maal daags een maaltijd en soms een kort gesprek
Maar opa miste zijn huisje, zijn raam en zijn straat
De buurt waarin zijn leven ligt, daar waar zijn huisje staat

CHORUS

e------------------------------------------------------------------------------|
B------------------------------------------------------------------------------|
G-------------------5-5-5-5-5-5--7-7-7-7-7-7--5-5-5-5-5-5----------------------|
D------5-5-5-5-5-5--5-5-5-5-5-5--7-7-7-7-7-7--5-5-5-5-5-5----------------------|
A------5-5-5-5-5-5--3-3-3-3-3-3--5-5-5-5-5-5--3-3-3-3-3-3----------------------|
E------3-3-3-3-3-3-------------------------------------------------------------|

e------------------------------------------------------------------------------|
B------------------------------------------------------------------------------|
G-------------------5-5-5-5-5-5--7-7-7-7-7-7--7-7-7-7-7-7----------------------|
D------5-5-5-5-5-5--5-5-5-5-5-5--7-7-7-7-7-7--7-7-7-7-7-7----------------------|
A------5-5-5-5-5-5--3-3-3-3-3-3--5-5-5-5-5-5--5-5-5-5-5-5----------------------|
E------3-3-3-3-3-3-------------------------------------------------------------|


   At the end of the chorus do like this

e------------------------------------------------------------------------------|
B------------------------------------------------------------------------------|
G------7-----------------------------------------------------7-5-7-5-----------|
D------7--first repeat this a few times----->--then this:----7-5-7-5-5---------|
A------5-----------------------------------------------------5-3-7-5-5---------|
E------------------------------------------------------------3-----------------|

Maar opa is weggestopt, opgeruimd en neergedropt
Bedankt voor uw werk, u kunt nu gaan
Opa is geconserveerd en uit de maatschappij geweerd
Uw tijd is nu voorbij, u kunt nu gaan
Opaa-aaa-aaa-aaa (Opaa-aaa-aaa-aaa)
Opaa-aaa-aaa-aaa (Opaa-aaa-aaa-aaa)


VERSE 2

E?n keer per jaar komt kleinzoon nog eens langs
E?n kort bezoekje, het heeft altijd iets wrangs
Kleinzoon vertelt over de zaak, zijn vrouw, het huis
Dat huisje in die leuke buurt, dat was opa's thuis
Kleinzoon zegt "Opa, ik moest maar weer eens gaan"
De koffie nog niet op, maar de plicht is toch gedaan
En opa denkt stilletjes "waaraan heb ik dit verdiend?"
Diep bij opa binnen is het zijn hart dat heel hard grient

CHORUS

VERSE 3

Opa is gestorven, hij kon het niet meer aan
Zijn hele leven hard gewerkt en toen moest hij gaan
Opa is langzaam vermoord en dat heeft een jaar geduurd
Maar kleinzoon is gelukkig in dat huisje in die leuke buurt

CHORUS


suggestions: mail me
            
Submit corrections

comments powered by Disqus
↑ Back to top | Heideroosjes Tabs for O.P.A. Lyrics for acoustic guitar and electric guitar. Tablatures and chords are parodies/interpretations of the original songs. You may use it for private study, scholarship, research or language learning purposes only