» » »

I Took Her Love For Granted Bass tabs (ver.2)

Artists:  A B C D E F G H I J K L M N O P Q R S T U V W X Y Z # 

I Took Her Love For Granted Bass tabs (ver.2)

Hefner
Rating:
0/5 (0 votes)

Hard to play? Try these video lessons and learn fast.
                Hefner - I took her love for granted

Very funky song from a great band, who are a bit underrated.
Great fun to play, not to mention it ROCKS ;)


Bass Tab

Timing: all notes are (conveniently) the same length. The words given
are a rough pointer.

verse pattern:

G -------------------------------------------------------------------
D ---5-5-----5-5-----5-5-----5-5-------------------------------------
A -------7-5-----7-5-----7-5-----7-5----5-7-----5-7-----5-7-----5-7--
E ----------------------------------7-7-----7-7-----7-7-----7-7------

G -----------------------------------------------------------------
D ------9-7-----9-7-----9-7-----9\----2-3-----2-3---------1-1-3-1--
A --7-7-----7-7-----7-7-----7-7---3-3-----3-3---------3-3----------
E ------------------------------------------------0-0--------------

chorus pattern:

G -------------------------------------------------------------------
D ---5-5-----5-5---------5-------5-----------------------------------
A -------7-5-----7-5-7-7---7-7-7---7-----5-------5-------7-7-5-5-7-7-
E -----------------------------------7-7---7-7-7---7-0-0-------------

second chorus pattern:

G -------------------------------------------------------------------
D ---7-7-----7-7---------5-------5-----------------------------------
A -------9-7-----9-7-9-9---9-9-9---9-----7-------7---0-0-9-9-7-7-9-9-
E -----------------------------------9-9---9-9-9---9-----------------

Sequence:

  verse x3
  chorus x2
  then play:                        (pause here for a bit)
    G -----------------------------------
    D ---5-5-----5-5-----5-5-----5-------
    A -------7-5-----7-5-----7-5---------
    E -----------------------------------
  verse x2
  chorus x2
  second chorus x4
  end with: (timing changes, use words as guide)
        she is more heavenly
    G ----------------------------
    D -------------------------7--
    A --0---0--9----7-----9-------
    E ----------------------------
            
Hard to play? Try these video lessons and learn fast. | Correct




comments powered by Disqus
↑ Back to top | Tablatures and chords are parodies/interpretations of the original songs. You may use it for private study, scholarship, research or language learning purposes only