» » »

Watchtower2 Tabs (ver.1)

Artists:  A B C D E F G H I J K L M N O P Q R S T U V W X Y Z # 

Watchtower2 Tabs (ver.1)

Hedges Michael
Rating:
0/5 (0 votes)

Hard to play? Try these video lessons and learn fast.
                References: 
Lines: 32


Watchtower:

tune your guitar DADEAE low to high.  The main riff is this:

                                                 (Harmonics at 12th)
E-----------------------------------------------12-----------
A--------------------------0--------------------12-----------
E----0-------------0---------------0------------12-----------
D----4-------------2---------------0------------12-----------
A----4-------------2---------------0-------------------------
D----4-------------2---------------0-------------------------
                           
These are just the chords.  I've failed to include any of the rhythmic
nicities.  The bridge is this:

E-----------------------------------------------------------0-------
A-----8----10--------6-----8----6--------6-----4-----6------0-------
E-----8-----8--------6-----6----6--------4-----4-----4------0-------
D-----10---10--------8-----8----8--------6-----6-----6------0-------
A-------------------------------------------------------------------
D-------------------------------------------------------------------
                                                                ^
                                                                |
                           Rap the guitar body under the neck with
			   one of the knuckles on your left hand here.


-Paul
            
Hard to play? Try these video lessons and learn fast. | Correct




comments powered by Disqus
↑ Back to top | Tablatures and chords are parodies/interpretations of the original songs. You may use it for private study, scholarship, research or language learning purposes only