>
 >
Forlorn Skies

Forlorn Skies Guitar Tabs

Heaven Shall Burn - Forlorn Skies chords, tabs, tablatures, lyrics

Guitar lessons | Add/correct | Request | Top 50 tabs Artists:  A B C D E F G H I J K L M N O P Q R S T U V W X Y Z 0-9

Forlorn Skies Guitar Tabs – Heaven Shall Burn

CD, Sheet music, Poster

Do you like Forlorn Skies? Share with your friends now
Tabs





   Drop C Tuning

   h = hammer on
   p = pull off
   . = palm mute picking

 ist eigentlich ziemlich korrekt,
 ein, zwei Töne KÖNNTEN falsch sein!

 pretty correct, may one or two notes can be wrong!

Riff A:
    |-------------------------------------|--------------|
    |---------------------3 times---------|---last time--|
    |-------------------------------------|--------------|
    |-------------------------------------|--2-2-2-2-----|
    |---------------------------------3-1-|--3-3-3-3-----|
    |-0-0-0-0-0-0-0-0-0-0-0-0-0-0-0-0-3-1-|--------------|
      . . . . . . . . . . . . . . . .
   
Riff B:
    |----------------------------------------------------------|
    |----------------------------------------------------------| first and
    |----------------------------------------------------------| third time
    |-3------3------3------3------5------5------5------5-------|
    |-5------5------5------5------7------7------7------7-------|
    |---0-0-0--0-0-0--0-0-0--0-0-0--0-0-0--0-0-0--0-0-0--0-0-0-|
        . . .  . . .  . . .  . . .  . . .  . . .  . . .  . . . 

    |----------------------------------------------------------|
    |----------------------------------------------------------| second
    |----------------------------------------------------------| time
    |-3------3------3------3------2------2------2------2-2-2-2-|
    |-5------5------5------5------3------3------3------3-3-3-3-|
    |---0-0-0--0-0-0--0-0-0--0-0-0--0-0-0--0-0-0--0-0-0--------|
        . . .  . . .  . . .  . . .  . . .  . . .  . . . 

    |----------------------------------------------------------|
    |----------------------------------------------------------| fourth 
    |----------------------------------------------------------| time
    |-7------7------7------7------5------5------5------2-2-2-2-|
    |-8------8------8------8------7------7------7------3-3-3-3-|
    |---0-0-0--0-0-0--0-0-0--0-0-0--0-0-0--0-0-0--0-0-0--------|
        . . .  . . .  . . .  . . .  . . .  . . .  . . .     

Riff C:
       this one i can`t figure out correctly because its very hard to
       listen to and to recognize, so PLEASE HELP and send an e-mail to me

Riff D:
   |-----------------------------------|------------------------------------|
   |----first third and fourth time----|-----second time--------------------|
   |-----------------------------------|------------------------------------|
   |-----------------------------------|------------------------------------|
   |--------8-7-----10-8---------------|--------8-7-----10-8-------8-7------|
   |-000000-----000------000-5p3-0-1h3-|-000000-----000------0-0-0-----10-8-|
     ......     ...      ...     .       ......     ...      . . . . .  . .

Riff E:
   |-------------------------------------------------|
   |-------------------------------------------------| first and
   |----------14-14-------------14-------14-14-14-14-| third time
   |-12-12-12-------12-12-12-12----12-12-------------|
   |-------------------------------------------------|
   |-------------------------------------------------|
      .  .  .        .  .  .  .     .  .

   |-------------------------------------------------|
   |-------------------------------------------------| second
   |----------17-17-------------17-------17-17-15-15-| time
   |-15-15-15-------15-15-15-15----15-15-------------|
   |-------------------------------------------------|
   |-------------------------------------------------|
      .  .  .        .  .  .  .     .  .
   
   |-------------------------------------------------|
   |-------------------------------------------------| fourth 
   |----------10-10-------------10-------10-10-9-9---| time
   |-10-10-10-------10-10-10-10----10-10-------------|
   |-------------------------------------------------|
   |-------------------------------------------------|
      .  .  .        .  .  .  .     .  .

Riff F:
   |----------------------------------------------------------------|
   |----------------------------------------------------------------|
   |----------------------------------------------------------------|
   |----------------------------------------------------------------|
   |-8-----8-----8-----7-----7---7---8-----8-----8-----10-----8---7-|
   |---000---000---000---000---0---0---000---000---000----000---0---|
       ...   ...   ...   ...   .   .   ...   ...   ...    ...   .
 
   |------------------------------------------------------------------|
   |------------------------------------------------------------------|
   |------------------------------------------------------------------|
   |------------------------------------------------------------------|
   |-8-----8-----8-----7-----7---7---8-----8-----8---10---12---10---8-|
   |---000---000---000---000---0---0---000---000---0----0----0----0---|
       ...   ...   ...   ...   .   .   ...   ...   .    .    .    .    

Riff G:
   |---------------------------------|
   |--------3 times------------------|
   |---------------------------------|
   |---------------------------------|
   |---------------------------------|
   |-0-0-0-0-0-000-000-0-0-0-0-0-0-0-|
     . . . . . ... ... . . . . . . .

   |-----------------------------------------|
   |--------last time------------------------|
   |-----------------------------------------|
   |-----------------------------------------|
   |-------------------------1-1-1-1-3-3-3-3-|
   |-0-0-0-0-0-000-000-0-0-0-1-1-1-1-3-3-3-3-|
     . . . . . ... ... . . . 

   |-----------------------------------------------------------------|
   |-----------------------------------------------------------------|
   |-----------------------------------------------------------------|
   |-----------------------------------------------------------------|
   |-----------------------------------------------------------------|
   |-0-0-0-0-0-0-0-0-111-0-0-0-0-0-0-333-0-0-0-0-0-0-444-111-666-333-|
     . . . . . . . . ... . . . . . . ... . . . . . . ... ... ... ...

   |-----------------------------------------------------------------|
   |-----------------------------------------------------------------|
   |-----------------------------------------------------------------|
   |-----------------------------------------------------------------|
   |-----------------------------------------------------------------|
   |-0-0-0-0-0-0-0-0-333-0-0-0-0-0-0-666-0-0-0-0-0-0-666-444-333-111-|
     . . . . . . . . ... . . . . . . ... . . . . . . ... ... ... ...
 
End:
   |---------|
   |---------|
   |---------|
   |---------|
   |-0-0-----|
   |-0-0-----|
     . .

 Thats it fellas!
 For rhythm and song structure listen to the song!
 Don`t forget to rate and correct this tab!





Comments


Popular Heaven Shall Burn tabs & chords
Profane Believers 2 Bass Tabs
The Only Truth Bass Tabs
The Weapon They Fear Bass Tabs
Weapon They Fear Bass Tabs
Atonement 1 Tabs
Black Tears 1 Tabs
Dream Is Dead Tabs
Implore The Darken Sky Tabs
Like A Thousand Suns Tabs
Of Forsaken Poets Tabs


Song lyrics



↑ Back to top | Tablatures and chords are parodies/interpretations of the original songs. You may use it for private study, scholarship, research or language learning purposes only
© 2014 AZChords.com Contact us | Privacy policy | DMCA | Add/correct tabs | Request tabs | Top 50 tabs