>
 >
Architects Of The Apocalypse

Architects Of The Apocalypse Guitar Tabs

Heaven Shall Burn - Architects Of The Apocalypse chords, tabs, tablatures, lyrics

Guitar lessons | Add/correct | Request | Top 50 tabs Artists:  A B C D E F G H I J K L M N O P Q R S T U V W X Y Z 0-9

Architects Of The Apocalypse Guitar Tabs – Heaven Shall Burn

CD, Sheet music, Poster

Do you like Architects Of The Apocalypse? Share with your friends now
Tabs
                         Architects Of The Apocalypse                           


                                                               Heaven Shall Burn
Spur 1



             S S S S S S S S S S S S S S S S  
D||-------|----------------------------------|
A||-------|----------------------------------|
F||-------|----------------------------------|
C||-------|----------------------------------|
G||-------|--0-0-0---0-0-0---0-0-0---0-------|
C||-------|--0-0-0---0-0-0---0-0-0---0-------|


  S S S S S S S S S S S S S S S S    S S S S S S S S S S S S S S S S  
----------------------------------|----------------------------------|
----------------------------------|----------------------------------|
----------------------------------|----------------------------------|
----------------------------------|----------------------------------|
----------------------------------|--0-0-0---0-0-0---0-0-0---0-------|
----------------------------------|--0-0-0---0-0-0---0-0-0---0-------|


   S  S  S  S  S  S S S S S S S S S S S    S S S S S S S S S S S S S S S S  
----------------------------------------|----------------------------------|
----------------------------------------|----------------------------------|
----------------------------------------|----------------------------------|
----------------------------------------|----------------------------------|
--10-10-10-10-10-10-8-8-8-8-8-8-7-7-7-7-|--0-0-0---0-0-0---0-0-0---0-------|
----------------------------------------|--0-0-0---0-0-0---0-0-0---0-------|


       S S S S S S S S S S S S S S S S     S  S  S  S S S S S S S S S S S S S  
----|----------------------------------|--------------------------------------|
----|----------------------------------|--------------------------------------|
----|----------------------------------|--------------------------------------|
----|----------------------------------|--------------------------------------|
----|--0-0-0---0-0-0---0-0-0---0-------|--10-10-10-10-8-8-8-8-7-7-7-7-5-5-5-5-|
----|--0-0-0---0-0-0---0-0-0---0-------|--------------------------------------|


  PM PM PM   PM PM PM   PM PM PM   PM PM PM    
  S  S  S  S S  S  S  S S  S  S  S S  S  S  S  
----------------------------------------------|
----------------------------------------------|
----------------------------------------------|
----------------------------------------------|
--8--8--8---------------8--8--8---------------|
-------------0--0--0---------------0--0--0----|


  PM PM PM   PM PM PM    PM PM PM  PM PM PM    
  S  S  S  S S  S  S  S  S  S  S S S  S  S  S  
----------------------------------------------|
----------------------------------------------|
----------------------------------------------|
----------------------------------------------|
--8--8--8---------------10-10-10---7--7--7----|
-------------0--0--0--------------------------|


  PM PM PM   PM PM PM   PM PM PM   PM PM PM    
  S  S  S  S S  S  S  S S  S  S  S S  S  S  S  
----------------------------------------------|
----------------------------------------------|
----------------------------------------------|
----------------------------------------------|
--8--8--8---------------8--8--8---------------|
-------------0--0--0---------------0--0--0----|


   S  S  S  S  S  S S S S S S S S S S S  
----------------------------------------|
----------------------------------------|
----------------------------------------|
----------------------------------------|
--10-10-10-10-10-10-8-8-8-8-8-8-7-7-7-7-|
----------------------------------------|


  PM PM PM   PM PM PM   PM PM PM   PM PM PM    
  S  S  S  S S  S  S  S S  S  S  S S  S  S  S  
----------------------------------------------|
----------------------------------------------|
----------------------------------------------|
----------------------------------------------|
--8--8--8---------------8--8--8---------------|
-------------0--0--0---------------0--0--0----|


  PM PM PM   PM PM PM    PM PM PM  PM PM PM    
  S  S  S  S S  S  S  S  S  S  S S S  S  S  S  
----------------------------------------------|
----------------------------------------------|
----------------------------------------------|
----------------------------------------------|
--8--8--8---------------10-10-10---7--7--7----|
-------------0--0--0--------------------------|


  PM PM PM   PM PM PM   PM PM PM   PM PM PM    
  S  S  S  S S  S  S  S S  S  S  S S  S  S  S  
----------------------------------------------|
----------------------------------------------|
----------------------------------------------|
----------------------------------------------|
--8--8--8---------------8--8--8---------------|
-------------0--0--0---------------0--0--0----|


   S  S  S  S S S S S S S S S S S S S  
--------------------------------------|
--------------------------------------|
--------------------------------------|
--------------------------------------|
--10-10-10-10-8-8-8-8-7-7-7-7-5-5-5-5-|
--------------------------------------|


  PM PM PM   PM PM PM   PM PM PM   PM PM PM    
  S  S  S  S S  S  S  S S  S  S  S S  S  S  S  
----------------------------------------------|
----------------------------------------------|
----------------------------------------------|
----------------------------------------------|
--8--8--8---------------8--8--8---------------|
-------------0--0--0---------------0--0--0----|


  PM PM PM   PM PM PM    PM PM PM  PM PM PM    
  S  S  S  S S  S  S  S  S  S  S S S  S  S  S  
----------------------------------------------|
----------------------------------------------|
----------------------------------------------|
----------------------------------------------|
--8--8--8---------------10-10-10---7--7--7----|
-------------0--0--0--------------------------|


  PM PM PM   PM PM PM   PM PM PM   PM PM PM    
  S  S  S  S S  S  S  S S  S  S  S S  S  S  S  
----------------------------------------------|
----------------------------------------------|
----------------------------------------------|
----------------------------------------------|
--8--8--8---------------8--8--8---------------|
-------------0--0--0---------------0--0--0----|


   S  S  S  S  S  S S S S S S S S S S S  
----------------------------------------|
----------------------------------------|
----------------------------------------|
----------------------------------------|
--10-10-10-10-10-10-8-8-8-8-8-8-7-7-7-7-|
----------------------------------------|


  PM PM PM   PM PM PM   PM PM PM   PM PM PM    
  S  S  S  S S  S  S  S S  S  S  S S  S  S  S  
----------------------------------------------|
----------------------------------------------|
----------------------------------------------|
----------------------------------------------|
--8--8--8---------------8--8--8---------------|
-------------0--0--0---------------0--0--0----|


  PM PM PM   PM PM PM    PM PM PM  PM PM PM    
  S  S  S  S S  S  S  S  S  S  S S S  S  S  S  
----------------------------------------------|
----------------------------------------------|
----------------------------------------------|
----------------------------------------------|
--8--8--8---------------10-10-10---7--7--7----|
-------------0--0--0--------------------------|


  PM PM PM   PM PM PM   PM PM PM   PM PM PM    
  S  S  S  S S  S  S  S S  S  S  S S  S  S  S  
----------------------------------------------|
----------------------------------------------|
----------------------------------------------|
----------------------------------------------|
--8--8--8---------------8--8--8---------------|
-------------0--0--0---------------0--0--0----|


   S  S  S  S S S S S S S S S S S S S  
--------------------------------------|
--------------------------------------|
--------------------------------------|
--------------------------------------|
--10-10-10-10-8-8-8-8-7-7-7-7-5-5-5-5-|
--------------------------------------|


  PM PM PM   PM PM PM   PM PM PM   PM PM PM    
  S  S  S  S S  S  S  S S  S  S  S S  S  S  S  
----------------------------------------------|
----------------------------------------------|
----------------------------------------------|
----------------------------------------------|
--8--8--8---------------8--8--8---------------|
-------------0--0--0---------------0--0--0----|


  PM PM PM   PM PM PM    PM PM PM  PM PM PM    
  S  S  S  S S  S  S  S  S  S  S S S  S  S  S  
----------------------------------------------|
----------------------------------------------|
----------------------------------------------|
----------------------------------------------|
--8--8--8---------------10-10-10---7--7--7----|
-------------0--0--0--------------------------|


  PM PM PM   PM PM PM   PM PM PM   PM PM PM    
  S  S  S  S S  S  S  S S  S  S  S S  S  S  S  
----------------------------------------------|
----------------------------------------------|
----------------------------------------------|
----------------------------------------------|
--8--8--8---------------8--8--8---------------|
-------------0--0--0---------------0--0--0----|


   S  S  S  S  S  S S S S S S S S S S S  
----------------------------------------|
----------------------------------------|
----------------------------------------|
----------------------------------------|
--10-10-10-10-10-10-8-8-8-8-8-8-7-7-7-7-|
----------------------------------------|


  PM PM PM   PM PM PM   PM PM PM   PM PM PM    
  S  S  S  S S  S  S  S S  S  S  S S  S  S  S  
----------------------------------------------|
----------------------------------------------|
----------------------------------------------|
----------------------------------------------|
--8--8--8---------------8--8--8---------------|
-------------0--0--0---------------0--0--0----|


  PM PM PM   PM PM PM    PM PM PM  PM PM PM    
  S  S  S  S S  S  S  S  S  S  S S S  S  S  S  
----------------------------------------------|
----------------------------------------------|
----------------------------------------------|
----------------------------------------------|
--8--8--8---------------10-10-10---7--7--7----|
-------------0--0--0--------------------------|


  PM PM PM   PM PM PM   PM PM PM   PM PM PM    
  S  S  S  S S  S  S  S S  S  S  S S  S  S  S  
----------------------------------------------|
----------------------------------------------|
----------------------------------------------|
----------------------------------------------|
--8--8--8---------------8--8--8---------------|
-------------0--0--0---------------0--0--0----|


                                         PM PM    PM    PM PM     
   S  S  S  S S S S S S S S S S S S S    E  E  E  E  E  E  E  E   
--------------------------------------|--------------------------|
--------------------------------------|--------------------------|
--------------------------------------|--------------------------|
--------------------------------------|--------------------------|
--10-10-10-10-8-8-8-8-7-7-7-7-5-5-5-5-|--------5-----5--------6--|
--------------------------------------|--0--0-----0-----0--0-----|


  PM PM    PM    PM         PM PM    PM    PM PM       PM PM    PM              
  E  E  E  E  E  E  Q       E  E  E  E  E  E  E  E     E  E  E  E  E  E  E  E   
-------------------------|--------------------------|--------------------------|
-------------------------|--------------------------|--------------------------|
-------------------------|--------------------------|--------------------------|
-------------------------|--------------------------|--------------------------|
--------6-----8-----8----|--------5-----5--------6--|--------6-----6--6--6--7--|
--0--0-----0-----0-------|--0--0-----0-----0--0-----|--0--0-----0--6--6--6--7--|


  PM PM    PM    PM PM       PM PM    PM    PM         PM PM    PM    PM PM     
  E  E  E  E  E  E  E  E     E  E  E  E  E  E  Q       E  E  E  E  E  E  E  E   
--------------------------|-------------------------|--------------------------|
--------------------------|-------------------------|--------------------------|
--------------------------|-------------------------|--------------------------|
--------------------------|-------------------------|--------------------------|
--------5-----5--------6--|--------6-----8-----8----|--------5-----5--------6--|
--0--0-----0-----0--0-----|--0--0-----0-----0-------|--0--0-----0-----0--0-----|


  PM PM    PM                PM PM    PM    PM PM       PM PM    PM    PM       
  E  E  E  E  E  E  E  E     E  E  E  E  E  E  E  E     E  E  E  E  E  E  Q     
--------------------------|--------------------------|-------------------------|
--------------------------|--------------------------|-------------------------|
--------------------------|--------------------------|-------------------------|
--------------------------|--------------------------|-------------------------|
--------6-----6--6--6--7--|--------5-----5--------6--|--------6-----8-----8----|
--0--0-----0--6--6--6--7--|--0--0-----0-----0--0-----|--0--0-----0-----0-------|


  PM PM    PM    PM PM       PM PM    PM              
  E  E  E  E  E  E  E  E     E  E  E  E  E  E  E  E   
--------------------------|--------------------------|
--------------------------|--------------------------|
--------------------------|--------------------------|
--------------------------|--------------------------|
--------5-----5--------6--|--------6-----6--6--6--7--|
--0--0-----0-----0--0-----|--0--0-----0--6--6--6--7--|


  PM PM    PM    PM PM       PM PM    PM    PM         PM PM    PM    PM PM     
  E  E  E  E  E  E  E  E     E  E  E  E  E  E  Q       E  E  E  E  E  E  E  E   
--------------------------|-------------------------|--------------------------|
--------------------------|-------------------------|--------------------------|
--------------------------|-------------------------|--------------------------|
--------------------------|-------------------------|--------------------------|
--------5-----5--------6--|--------6-----8-----8----|--------5-----5--------6--|
--0--0-----0-----0--0-----|--0--0-----0-----0-------|--0--0-----0-----0--0-----|


  PM PM    PM                PM PM PM   PM PM PM   PM PM PM   PM PM PM    
  E  E  E  E  E  E  E  E     S  S  S  S S  S  S  S S  S  S  S S  S  S  S  
--------------------------|----------------------------------------------|
--------------------------|----------------------------------------------|
--------------------------|----------------------------------------------|
--------------------------|----------------------------------------------|
--------6-----6--6--6--7--|--8--8--8---------------8--8--8---------------|
--0--0-----0--6--6--6--7--|-------------0--0--0---------------0--0--0----|


  PM PM PM   PM PM PM    PM PM PM  PM PM PM    
  S  S  S  S S  S  S  S  S  S  S S S  S  S  S  
----------------------------------------------|
----------------------------------------------|
----------------------------------------------|
----------------------------------------------|
--8--8--8---------------10-10-10---7--7--7----|
-------------0--0--0--------------------------|


  PM PM PM   PM PM PM   PM PM PM   PM PM PM    
  S  S  S  S S  S  S  S S  S  S  S S  S  S  S  
----------------------------------------------|
----------------------------------------------|
----------------------------------------------|
----------------------------------------------|
--8--8--8---------------8--8--8---------------|
-------------0--0--0---------------0--0--0----|


   S  S  S  S  S  S S S S S S S S S S S  
----------------------------------------|
----------------------------------------|
----------------------------------------|
----------------------------------------|
--10-10-10-10-10-10-8-8-8-8-8-8-7-7-7-7-|
----------------------------------------|


  PM PM PM   PM PM PM   PM PM PM   PM PM PM    
  S  S  S  S S  S  S  S S  S  S  S S  S  S  S  
----------------------------------------------|
----------------------------------------------|
----------------------------------------------|
----------------------------------------------|
--8--8--8---------------8--8--8---------------|
-------------0--0--0---------------0--0--0----|


  PM PM PM   PM PM PM    PM PM PM  PM PM PM    
  S  S  S  S S  S  S  S  S  S  S S S  S  S  S  
----------------------------------------------|
----------------------------------------------|
----------------------------------------------|
----------------------------------------------|
--8--8--8---------------10-10-10---7--7--7----|
-------------0--0--0--------------------------|


  PM PM PM   PM PM PM   PM PM PM   PM PM PM    
  S  S  S  S S  S  S  S S  S  S  S S  S  S  S  
----------------------------------------------|
----------------------------------------------|
----------------------------------------------|
----------------------------------------------|
--8--8--8---------------8--8--8---------------|
-------------0--0--0---------------0--0--0----|


   S  S  S  S S S S S S S S S S S S S  
--------------------------------------|
--------------------------------------|
--------------------------------------|
--------------------------------------|
--10-10-10-10-8-8-8-8-7-7-7-7-5-5-5-5-|
--------------------------------------|


  PM PM PM   PM PM PM   PM PM PM    PM PM PM   
  S  S  S  S S  S  S  S S  S  S  S  S  S  S S  
----------------------------------------------|
----------------------------------------------|
----------------------------------------------|
----------------------------------------------|
--8--8--8----5--5--5---------------12-12-12---|
------------------------0--0--0---------------|


   PM PM PM  PM PM PM    PM PM PM  PM PM PM    
   S  S  S S S  S  S  S  S  S  S S S  S  S  S  
----------------------------------------------|
----------------------------------------------|
----------------------------------------------|
----------------------------------------------|
--10-10-10--------------10-10-10---7--7--7----|
-------------0--0--0--------------------------|


  PM PM PM   PM PM PM   PM PM PM   PM PM PM    
  S  S  S  S S  S  S  S S  S  S  S S  S  S  S  
----------------------------------------------|
----------------------------------------------|
----------------------------------------------|
----------------------------------------------|
--8--8--8----5--5--5---------------5--5--5----|
------------------------0--0--0---------------|


   S  S  S  S S S S S S S S S S S S S  
--------------------------------------|
--------------------------------------|
--------------------------------------|
--------------------------------------|
--10-10-10-10-8-8-8-8-7-7-7-7-5-5-5-5-|
--------------------------------------|


  PM PM PM   PM PM PM   PM PM PM    PM PM PM   
  S  S  S  S S  S  S  S S  S  S  S  S  S  S S  
----------------------------------------------|
----------------------------------------------|
----------------------------------------------|
----------------------------------------------|
--8--8--8----5--5--5---------------12-12-12---|
------------------------0--0--0---------------|


   PM PM PM  PM PM PM    PM PM PM  PM PM PM    
   S  S  S S S  S  S  S  S  S  S S S  S  S  S  
----------------------------------------------|
----------------------------------------------|
----------------------------------------------|
----------------------------------------------|
--10-10-10--------------10-10-10---7--7--7----|
-------------0--0--0--------------------------|


  PM PM PM   PM PM PM   PM PM PM   PM PM PM    
  S  S  S  S S  S  S  S S  S  S  S S  S  S  S  
----------------------------------------------|
----------------------------------------------|
----------------------------------------------|
----------------------------------------------|
--8--8--8----5--5--5---------------5--5--5----|
------------------------0--0--0---------------|


                                         PM PM    PM    PM PM     
   S  S  S  S S S S S S S S S S S S S    E  E  E  E  E  E  E  E   
--------------------------------------|--------------------------|
--------------------------------------|--------------------------|
--------------------------------------|--------------------------|
--------------------------------------|--------------------------|
--10-10-10-10-8-8-8-8-7-7-7-7-5-5-5-5-|--------5-----5--------6--|
--------------------------------------|--0--0-----0-----0--0-----|


  PM PM    PM    PM         PM PM    PM    PM PM       PM PM    PM              
  E  E  E  E  E  E  Q       E  E  E  E  E  E  E  E     E  E  E  E  E  E  E  E   
-------------------------|--------------------------|--------------------------|
-------------------------|--------------------------|--------------------------|
-------------------------|--------------------------|--------------------------|
-------------------------|--------------------------|--------------------------|
--------6-----8-----8----|--------5-----5--------6--|--------6-----6--6--6--7--|
--0--0-----0-----0-------|--0--0-----0-----0--0-----|--0--0-----0--6--6--6--7--|


  PM PM    PM    PM PM       PM PM    PM    PM         PM PM    PM    PM PM     
  E  E  E  E  E  E  E  E     E  E  E  E  E  E  Q       E  E  E  E  E  E  E  E   
--------------------------|-------------------------|--------------------------|
--------------------------|-------------------------|--------------------------|
--------------------------|-------------------------|--------------------------|
--------------------------|-------------------------|--------------------------|
--------5-----5--------6--|--------6-----8-----8----|--------5-----5--------6--|
--0--0-----0-----0--0-----|--0--0-----0-----0-------|--0--0-----0-----0--0-----|


  PM PM    PM                PM PM    PM    PM PM       PM PM    PM    PM       
  E  E  E  E  E  E  E  E     E  E  E  E  E  E  E  E     E  E  E  E  E  E  Q     
--------------------------|--------------------------|-------------------------|
--------------------------|--------------------------|-------------------------|
--------------------------|--------------------------|-------------------------|
--------------------------|--------------------------|-------------------------|
--------6-----6--6--6--7--|--------5-----5--------6--|--------6-----8-----8----|
--0--0-----0--6--6--6--7--|--0--0-----0-----0--0-----|--0--0-----0-----0-------|


  PM PM    PM    PM PM       PM PM    PM              
  E  E  E  E  E  E  E  E     E  E  E  E  E  E  E  E   
--------------------------|--------------------------|
--------------------------|--------------------------|
--------------------------|--------------------------|
--------------------------|--------------------------|
--------5-----5--------6--|--------6-----6--6--6--7--|
--0--0-----0-----0--0-----|--0--0-----0--6--6--6--7--|


  PM PM    PM    PM PM       PM PM    PM    PM         PM PM    PM    PM PM     
  E  E  E  E  E  E  E  E     E  E  E  E  E  E  Q       E  E  E  E  E  E  E  E   
--------------------------|-------------------------|--------------------------|
--------------------------|-------------------------|--------------------------|
--------------------------|-------------------------|--------------------------|
--------------------------|-------------------------|--------------------------|
--------5-----5--------6--|--------6-----8-----8----|--------5-----5--------6--|
--0--0-----0-----0--0-----|--0--0-----0-----0-------|--0--0-----0-----0--0-----|


  PM PM    PM                     PM PM PM PM PM PM      
  E  E  E  E  E  E  E  E     Q    E  E  S  S  E  E  S S  
--------------------------|-----------------------------|
--------------------------|-----------------------------|
--------------------------|-----------------------------|
--------------------------|--0--------------------------|
--------6-----0-----------|--0----0--0--0--0--0--0--0-0-|
--0--0-----0--0-----------|--0----0--0--0--0--0--0--0-0-|


  PM PM PM PM PM                      PM PM PM PM PM PM      
  E  E  S  S  E  E  E   E  E     Q    E  E  S  S  E  E  S S  
------------------------------|-----------------------------|
------------------------------|-----------------------------|
------------------------------|-----------------------------|
------------------------------|--0--------------------------|
--0--0--0--0--0--7--8--10--8--|--0----0--0--0--0--0--0--0-0-|
--0--0--0--0--0---------------|--0----0--0--0--0--0--0--0-0-|


  PM PM PM PM PM                      PM PM PM PM PM PM      
  E  E  S  S  E  E  E  E   E     Q    E  E  S  S  E  E  S S  
------------------------------|-----------------------------|
------------------------------|-----------------------------|
------------------------------|-----------------------------|
------------------------------|--0--------------------------|
--0--0--0--0--0--8--8--8--10--|--0----0--0--0--0--0--0--0-0-|
--0--0--0--0--0--8--8--8--10--|--0----0--0--0--0--0--0--0-0-|


  PM PM PM PM PM                      PM PM PM PM PM PM      
  E  E  S  S  E  E  E   E  E     Q    E  E  S  S  E  E  S S  
------------------------------|-----------------------------|
------------------------------|-----------------------------|
------------------------------|-----------------------------|
------------------------------|--0--------------------------|
--0--0--0--0--0--7--8--10--8--|--0----0--0--0--0--0--0--0-0-|
--0--0--0--0--0---------------|--0----0--0--0--0--0--0--0-0-|


  PM PM PM PM PM                                              
  E  E  S  S  E  E  E  E   E     S S S S E  E  E  S S S S E   
------------------------------|------------------------------|
------------------------------|------------------------------|
------------------------------|------------------------------|
-----------------8--8--8--10--|------------------------------|
--0--0--0--0--0--8--8--8--10--|----------7-----8----------5--|
--0--0--0--0--0--8--8--8--10--|--0-0-0------0-----0-0-0------|


  E  E  S S S S E  E   E  E     S S S S E  E  E  S S S S E   
-----------------------------|------------------------------|
-----------------------------|------------------------------|
-----------------------------|------------------------------|
-----------------------------|------------------------------|
-----7----------7--8--10--8--|----------7-----8----------5--|
--0-----0-0-0----------------|--0-0-0------0-----0-0-0------|


  E  E  S S S S E  E  E   E     S S S S E  E  E  S S S S E   
-----------------------------|------------------------------|
-----------------------------|------------------------------|
-----------------------------|------------------------------|
-----------------------------|------------------------------|
-----7----------8--8--8--10--|----------7-----8----------5--|
--0-----0-0-0---8--8--8--10--|--0-0-0------0-----0-0-0------|


  E  E  S S S S E  E   E  E     S S S S E  E  E  S S S S E   
-----------------------------|------------------------------|
-----------------------------|------------------------------|
-----------------------------|------------------------------|
-----------------------------|------------------------------|
-----7----------7--8--10--8--|----------7-----8----------5--|
--0-----0-0-0----------------|--0-0-0------0-----0-0-0------|


                                     PM PM PM PM PM PM      
  E  E  S S S S E  E  E   E     Q    E  E  S  S  E  E  S S  
-----------------------------|-----------------------------|
-----------------------------|-----------------------------|
-----------------------------|-----------------------------|
-----------------------------|--0--------------------------|
-----7----------8--8--8--10--|--0----0--0--0--0--0--0--0-0-|
--0-----0-0-0---8--8--8--10--|--0----0--0--0--0--0--0--0-0-|


  PM PM PM PM PM                      PM PM PM PM PM PM      
  E  E  S  S  E  E  E   E  E     Q    E  E  S  S  E  E  S S  
------------------------------|-----------------------------|
------------------------------|-----------------------------|
------------------------------|-----------------------------|
------------------------------|--0--------------------------|
--0--0--0--0--0--7--8--10--8--|--0----0--0--0--0--0--0--0-0-|
--0--0--0--0--0---------------|--0----0--0--0--0--0--0--0-0-|


  PM PM PM PM PM                      PM PM PM PM PM PM      
  E  E  S  S  E  E  E  E   E     Q    E  E  S  S  E  E  S S  
------------------------------|-----------------------------|
------------------------------|-----------------------------|
------------------------------|-----------------------------|
------------------------------|--0--------------------------|
--0--0--0--0--0--8--8--8--10--|--0----0--0--0--0--0--0--0-0-|
--0--0--0--0--0--8--8--8--10--|--0----0--0--0--0--0--0--0-0-|


  PM PM PM PM PM                      PM PM PM PM PM PM      
  E  E  S  S  E  E  E   E  E     Q    E  E  S  S  E  E  S S  
------------------------------|-----------------------------|
------------------------------|-----------------------------|
------------------------------|-----------------------------|
------------------------------|--0--------------------------|
--0--0--0--0--0--7--8--10--8--|--0----0--0--0--0--0--0--0-0-|
--0--0--0--0--0---------------|--0----0--0--0--0--0--0--0-0-|


  PM PM PM PM PM                                              
  E  E  S  S  E  E  E  E   E     S S S S E  E  E  S S S S E   
------------------------------|------------------------------|
------------------------------|------------------------------|
------------------------------|------------------------------|
------------------------------|------------------------------|
--0--0--0--0--0--8--8--8--10--|----------7-----8----------5--|
--0--0--0--0--0--8--8--8--10--|--0-0-0------0-----0-0-0------|


  E  E  S S S S E  E   E  E     S S S S E  E  E  S S S S E   
-----------------------------|------------------------------|
-----------------------------|------------------------------|
-----------------------------|------------------------------|
-----------------------------|------------------------------|
-----7----------7--8--10--8--|----------7-----8----------5--|
--0-----0-0-0----------------|--0-0-0------0-----0-0-0------|


  E  E  S S S S E  E  E   E     S S S S E  E  E  S S S S E   
-----------------------------|------------------------------|
-----------------------------|------------------------------|
-----------------------------|------------------------------|
-----------------------------|------------------------------|
-----7----------8--8--8--10--|----------7-----8----------5--|
--0-----0-0-0---8--8--8--10--|--0-0-0------0-----0-0-0------|


  E  E  S S S S E  E   E  E     S S S S E  E  E  S S S S E   
-----------------------------|------------------------------|
-----------------------------|------------------------------|
-----------------------------|------------------------------|
-----------------------------|------------------------------|
-----7----------7--8--10--8--|----------7-----8----------5--|
--0-----0-0-0----------------|--0-0-0------0-----0-0-0------|


                                PM PM    PM    PM PM     
  E  E  S S S S E  E  E   E     E  E  E  E  E  E  E  E   
-----------------------------|--------------------------|
-----------------------------|--------------------------|
-----------------------------|--------------------------|
-----------------------------|--------------------------|
-----7----------8--8--8--10--|--------5-----5--------6--|
--0-----0-0-0---8--8--8--10--|--0--0-----0-----0--0-----|


  PM PM    PM    PM         PM PM    PM    PM PM       PM PM    PM              
  E  E  E  E  E  E  Q       E  E  E  E  E  E  E  E     E  E  E  E  E  E  E  E   
-------------------------|--------------------------|--------------------------|
-------------------------|--------------------------|--------------------------|
-------------------------|--------------------------|--------------------------|
-------------------------|--------------------------|--------------------------|
--------6-----8-----8----|--------5-----5--------6--|--------6-----6--6--6--7--|
--0--0-----0-----0-------|--0--0-----0-----0--0-----|--0--0-----0--6--6--6--7--|


  PM PM    PM    PM PM       PM PM    PM    PM         PM PM    PM    PM PM     
  E  E  E  E  E  E  E  E     E  E  E  E  E  E  Q       E  E  E  E  E  E  E  E   
--------------------------|-------------------------|--------------------------|
--------------------------|-------------------------|--------------------------|
--------------------------|-------------------------|--------------------------|
--------------------------|-------------------------|--------------------------|
--------5-----5--------6--|--------6-----8-----8----|--------5-----5--------6--|
--0--0-----0-----0--0-----|--0--0-----0-----0-------|--0--0-----0-----0--0-----|


  PM PM    PM                PM PM    PM    PM PM       PM PM    PM    PM       
  E  E  E  E  E  E  E  E     E  E  E  E  E  E  E  E     E  E  E  E  E  E  Q     
--------------------------|--------------------------|-------------------------|
--------------------------|--------------------------|-------------------------|
--------------------------|--------------------------|-------------------------|
--------------------------|--------------------------|-------------------------|
--------6-----6--6--6--7--|--------5-----5--------6--|--------6-----8-----8----|
--0--0-----0--6--6--6--7--|--0--0-----0-----0--0-----|--0--0-----0-----0-------|


  PM PM    PM    PM PM       PM PM    PM              
  E  E  E  E  E  E  E  E     E  E  E  E  E  E  E  E   
--------------------------|--------------------------|
--------------------------|--------------------------|
--------------------------|--------------------------|
--------------------------|--------------------------|
--------5-----5--------6--|--------6-----6--6--6--7--|
--0--0-----0-----0--0-----|--0--0-----0--6--6--6--7--|


  PM PM    PM    PM PM       PM PM    PM    PM         PM PM    PM    PM PM     
  E  E  E  E  E  E  E  E     E  E  E  E  E  E  Q       E  E  E  E  E  E  E  E   
--------------------------|-------------------------|--------------------------|
--------------------------|-------------------------|--------------------------|
--------------------------|-------------------------|--------------------------|
--------------------------|-------------------------|--------------------------|
--------5-----5--------6--|--------6-----8-----8----|--------5-----5--------6--|
--0--0-----0-----0--0-----|--0--0-----0-----0-------|--0--0-----0-----0--0-----|


  PM PM    PM                PM PM PM   PM PM PM   PM PM PM   PM PM PM    
  E  E  E  E  E  E  E  E     S  S  S  S S  S  S  S S  S  S  S S  S  S  S  
--------------------------|----------------------------------------------|
--------------------------|----------------------------------------------|
--------------------------|----------------------------------------------|
--------------------------|----------------------------------------------|
--------6-----0-----------|--8--8--8---------------8--8--8---------------|
--0--0-----0--0-----------|-------------0--0--0---------------0--0--0----|


  PM PM PM   PM PM PM    PM PM PM  PM PM PM    
  S  S  S  S S  S  S  S  S  S  S S S  S  S  S  
----------------------------------------------|
----------------------------------------------|
----------------------------------------------|
----------------------------------------------|
--8--8--8---------------10-10-10---7--7--7----|
-------------0--0--0--------------------------|


  PM PM PM   PM PM PM   PM PM PM   PM PM PM    
  S  S  S  S S  S  S  S S  S  S  S S  S  S  S  
----------------------------------------------|
----------------------------------------------|
----------------------------------------------|
----------------------------------------------|
--8--8--8---------------8--8--8---------------|
-------------0--0--0---------------0--0--0----|


   S  S  S  S  S  S S S S S S S S S S S  
----------------------------------------|
----------------------------------------|
----------------------------------------|
----------------------------------------|
--10-10-10-10-10-10-8-8-8-8-8-8-7-7-7-7-|
----------------------------------------|


  PM PM PM   PM PM PM   PM PM PM   PM PM PM    
  S  S  S  S S  S  S  S S  S  S  S S  S  S  S  
----------------------------------------------|
----------------------------------------------|
----------------------------------------------|
----------------------------------------------|
--8--8--8---------------8--8--8---------------|
-------------0--0--0---------------0--0--0----|


  PM PM PM   PM PM PM    PM PM PM  PM PM PM    
  S  S  S  S S  S  S  S  S  S  S S S  S  S  S  
----------------------------------------------|
----------------------------------------------|
----------------------------------------------|
----------------------------------------------|
--8--8--8---------------10-10-10---7--7--7----|
-------------0--0--0--------------------------|


  PM PM PM   PM PM PM   PM PM PM   PM PM PM    
  S  S  S  S S  S  S  S S  S  S  S S  S  S  S  
----------------------------------------------|
----------------------------------------------|
----------------------------------------------|
----------------------------------------------|
--8--8--8---------------8--8--8---------------|
-------------0--0--0---------------0--0--0----|


   S  S  S  S S S S S S S S S S S S S  
--------------------------------------|
--------------------------------------|
--------------------------------------|
--------------------------------------|
--10-10-10-10-8-8-8-8-7-7-7-7-5-5-5-5-|
--------------------------------------|


  PM PM PM   PM PM PM   PM PM PM    PM PM PM   
  S  S  S  S S  S  S  S S  S  S  S  S  S  S S  
----------------------------------------------|
----------------------------------------------|
----------------------------------------------|
----------------------------------------------|
--8--8--8----5--5--5---------------12-12-12---|
------------------------0--0--0---------------|


   PM PM PM  PM PM PM    PM PM PM  PM PM PM    
   S  S  S S S  S  S  S  S  S  S S S  S  S  S  
----------------------------------------------|
----------------------------------------------|
----------------------------------------------|
----------------------------------------------|
--10-10-10--------------10-10-10---7--7--7----|
-------------0--0--0--------------------------|


  PM PM PM   PM PM PM   PM PM PM   PM PM PM    
  S  S  S  S S  S  S  S S  S  S  S S  S  S  S  
----------------------------------------------|
----------------------------------------------|
----------------------------------------------|
----------------------------------------------|
--8--8--8----5--5--5---------------5--5--5----|
------------------------0--0--0---------------|


   S  S  S  S S S S S S S S S S S S S  
--------------------------------------|
--------------------------------------|
--------------------------------------|
--------------------------------------|
--10-10-10-10-8-8-8-8-7-7-7-7-5-5-5-5-|
--------------------------------------|


  PM PM PM   PM PM PM   PM PM PM    PM PM PM   
  S  S  S  S S  S  S  S S  S  S  S  S  S  S S  
----------------------------------------------|
----------------------------------------------|
----------------------------------------------|
----------------------------------------------|
--8--8--8----5--5--5---------------12-12-12---|
------------------------0--0--0---------------|


   PM PM PM  PM PM PM    PM PM PM  PM PM PM    
   S  S  S S S  S  S  S  S  S  S S S  S  S  S  
----------------------------------------------|
----------------------------------------------|
----------------------------------------------|
----------------------------------------------|
--10-10-10--------------10-10-10---7--7--7----|
-------------0--0--0--------------------------|


  PM PM PM   PM PM PM   PM PM PM   PM PM PM    
  S  S  S  S S  S  S  S S  S  S  S S  S  S  S  
----------------------------------------------|
----------------------------------------------|
----------------------------------------------|
----------------------------------------------|
--8--8--8----5--5--5---------------5--5--5----|
------------------------0--0--0---------------|


                                              PM PM PM PM PM PM      
   S  S  S  S S S S S S S S S S S S S    Q    E  E  S  S  E  E  S S  
--------------------------------------|-----------------------------|
--------------------------------------|-----------------------------|
--------------------------------------|-----------------------------|
--------------------------------------|--0--------------------------|
--10-10-10-10-8-8-8-8-7-7-7-7-5-5-5-5-|--0----0--0--0--0--0--0--0-0-|
--------------------------------------|--0----0--0--0--0--0--0--0-0-|


  PM PM PM PM PM                      PM PM PM PM PM PM      
  E  E  S  S  E  E  E   E  E     Q    E  E  S  S  E  E  S S  
------------------------------|-----------------------------|
------------------------------|-----------------------------|
------------------------------|-----------------------------|
------------------------------|--0--------------------------|
--0--0--0--0--0--7--8--10--8--|--0----0--0--0--0--0--0--0-0-|
--0--0--0--0--0---------------|--0----0--0--0--0--0--0--0-0-|


  PM PM PM PM PM                      PM PM PM PM PM PM      
  E  E  S  S  E  E  E  E   E     Q    E  E  S  S  E  E  S S  
------------------------------|-----------------------------|
------------------------------|-----------------------------|
------------------------------|-----------------------------|
------------------------------|--0--------------------------|
--0--0--0--0--0--8--8--8--10--|--0----0--0--0--0--0--0--0-0-|
--0--0--0--0--0--8--8--8--10--|--0----0--0--0--0--0--0--0-0-|


  PM PM PM PM PM                      PM PM PM PM PM PM      
  E  E  S  S  E  E  E   E  E     Q    E  E  S  S  E  E  S S  
------------------------------|-----------------------------|
------------------------------|-----------------------------|
------------------------------|-----------------------------|
------------------------------|--0--------------------------|
--0--0--0--0--0--7--8--10--8--|--0----0--0--0--0--0--0--0-0-|
--0--0--0--0--0---------------|--0----0--0--0--0--0--0--0-0-|


  PM PM PM PM PM                      PM PM PM PM PM PM      
  E  E  S  S  E  E  E  E   E     Q    E  E  S  S  E  E  S S  
------------------------------|-----------------------------|
------------------------------|-----------------------------|
------------------------------|-----------------------------|
------------------------------|--0--------------------------|
--0--0--0--0--0--8--8--8--10--|--0----0--0--0--0--0--0--0-0-|
--0--0--0--0--0--8--8--8--10--|--0----0--0--0--0--0--0--0-0-|


  PM PM PM PM PM                      PM PM PM PM PM PM      
  E  E  S  S  E  E  E   E  E     Q    E  E  S  S  E  E  S S  
------------------------------|-----------------------------|
------------------------------|-----------------------------|
------------------------------|-----------------------------|
------------------------------|--0--------------------------|
--0--0--0--0--0--7--8--10--8--|--0----0--0--0--0--0--0--0-0-|
--0--0--0--0--0---------------|--0----0--0--0--0--0--0--0-0-|


  PM PM PM PM PM                      PM PM PM PM PM PM      
  E  E  S  S  E  E  E  E   E     Q    E  E  S  S  E  E  S S  
------------------------------|-----------------------------|
------------------------------|-----------------------------|
------------------------------|-----------------------------|
------------------------------|--0--------------------------|
--0--0--0--0--0--8--8--8--10--|--0----0--0--0--0--0--0--0-0-|
--0--0--0--0--0--8--8--8--10--|--0----0--0--0--0--0--0--0-0-|


  PM PM PM PM PM                      PM PM PM PM PM PM      
  E  E  S  S  E  E  E   E  E     Q    E  E  S  S  E  E  S S  
------------------------------|-----------------------------|
------------------------------|-----------------------------|
------------------------------|-----------------------------|
------------------------------|--0--------------------------|
--0--0--0--0--0--7--8--10--8--|--0----0--0--0--0--0--0--0-0-|
--0--0--0--0--0---------------|--0----0--0--0--0--0--0--0-0-|


  PM PM PM PM PM                                                       
  E  E  S  S  E  E  E  E   E     W                   W                 
------------------------------|-------------------|-------------------|
------------------------------|-------------------|-------------------|
------------------------------|-------------------|-------------------|
------------------------------|--0----------------|--L----------------|
--0--0--0--0--0--8--8--8--10--|--0----------------|--L----------------|
--0--0--0--0--0--8--8--8--10--|--0----------------|--L----------------|


  W                   W                   W                  
-------------------|-------------------|-------------------||
-------------------|-------------------|-------------------||
-------------------|-------------------|-------------------||
--L----------------|--L----------------|--L----------------||
--L----------------|--L----------------|--L----------------||
--L----------------|--L----------------|--L----------------||




Duration Legend
---------------
W - whole
H - half
Q - quarter
E - 8th
S - 16th
T - 32nd
X - 64th
. - note dotted
|-n-|  - n-tuplets


Tablature Legend
----------------
L - tied note
x - dead note
g - grace note
(n) - ghost note
> - accentuded note
NH - natural harmonic
AH - artificial harmonic
TH - tapped harmonic
SH - semi harmonic
PH - pitch harmonic
h - hammer on
p - pull off
b - bend
br - bendRelease
pb - preBend
pbr - preBendRelease
brb - bendReleaseBend
\n/ - tremolo bar dip
\n - tremolo bar dive
-/n - tremolo bar Release up
/n\ - tremolo bar inverted dip
/n - tremolo bar return
-\n - tremolo bar Release down
S - shift slide
s - legato slide
/ -  slide into from below or out of upwards
\ -  slide into from above or out of downwards
~ - vibrato
W - wide vibrato
tr - trill
TP - tremolo picking
T - tapping
S - slap
P - pop
< - fade in
^ - brush up
v - brush down





Comments


Popular Heaven Shall Burn tabs & chords
The Only Truth Bass Tabs
Voice Of The Voiceless Bass Tabs
Weapon They Fear Bass Tabs
Armia Tabs
Atonement 1 Tabs
Behind A Wall Of Silence Tabs
Black Tears 1 Tabs
Not My God Tabs
Profane Believers Tabs
Quest For Resistance Tabs


Song lyrics



↑ Back to top | Tablatures and chords are parodies/interpretations of the original songs. You may use it for private study, scholarship, research or language learning purposes only
© 2014 AZChords.com Contact us | Privacy policy | DMCA | Add/correct tabs | Request tabs | Top 50 tabs