» » »

Heart, Cherry Blossom Roadup On Tabs (ver.1)

Artists:  A B C D E F G H I J K L M N O P Q R S T U V W X Y Z # 

Cherry Blossom Roadup On Tabs (ver.1)

Heart Tabs
Rating:
0/5 (0 votes)
Hard to play? Try these video lessons and learn fast.
                (Intro)
Ok, so i couldnt find this tab.  I decided to try and firgure out some of the intro.  It 
pretty good to me.  I hope to add more of the song later.  If you have any suggestions 
corrections pleae tell me.

b=bend note
^=upstroke
X=muted note
-------------------0--0--0-----3--3^-3--0------------------------|
-------1-----------1--1--1-----0--0^-0--1------------------------|
-----0---0---------0--0--0-----0--0^-0--0------------------------|
---2-------2b------2--2--2--0--0--0^-0--2------------------------|
-------------3-----3--3--3--0--2--2^-2--3------------------------|
----------------------------0--3--3^-3---------------------------|
REPEAT THIS ONCE


VERSE:
---0--0--X^-X-0--3--3--X^-X--X^--3-------------------------------|
---1--1--X^-X-0--0--0--X^-X--0^--0-------------------------------|
---0--0--X^-X-0--0--0--X^-X--0^--0-------------------------------|
---2--2--X^-X-0--0--0--X^-X--0^--0-------------------------------|
---3--3--X^-X-0--2--2--X^-X--X^--2-------------------------------|
---------X^-X-0--3--3--X^-X--X^--3-------------------------------|
            

comments powered by Disqus
↑ Back to top | Heart Tabs for Cherry Blossom Roadup On. Lyrics for acoustic guitar and electric guitar. Tablatures and chords are parodies/interpretations of the original songs. You may use it for private study, scholarship, research or language learning purposes only