» » »

Headstones, Cut Me Up Bass tabs (ver.1)

Artists:  A B C D E F G H I J K L M N O P Q R S T U V W X Y Z # 

Cut Me Up Bass tabs (ver.1)

Headstones Tabs
 Rating:
4/5 (4 votes)
Cut Me Up lessons Tabs too difficult? Try these video lessons and learn fast
1
                Verse: 
G-----------------------------------------------------------------------|
D-----------------------------------------------------------------------|
A-2-2-2-2-2-2-2-2-2--4-4-4-4-4-4-4-4--0-0-0-0-0-0-0-0--7-7-7-7-7-7-7-7--|
E-----------------------------------------------------------------------|

G-----------------------------------------------------------------------|
D-----------------------------------------------------------------------|
A-2-2-2-2-2-2-2-2-2--4-4-4-4-4-4-4-4--0-0-0-0-0-0-0-0--7-7-7-7-7-7-7-7--|
E-----------------------------------------------------------------------|

G-----------------------------------------------------------------------|
D-----------------------------------------------------------------------|
A-2-2-2-2-2-2-2-2-2--4-4-4-4-4-4-4-4--0-0-0-0-0-0-0-0--7-7-7-7-7-7-7-7--|
E-----------------------------------------------------------------------|

G-----------------------------------------------------------------------|
D-----------------------------------------------------------------------|
A-2-2-2-2-2-2-2-2-2--4-4-4-4-4-4-4-4--0-0-0-0-0-0-0-0---9--9--9--9--9---|
E-----------------------------------------------------------------------|

Pre-Chorus (No more wasted time)
G--------------------------------------------------------|
D--------------------------------------------------------|
A-7--7-7-7-7--7--4--4-4-4--7--7-7-7--4--4-4-4--4--4-4-4--|
E--------------------------------------------------------|

Chorus (Is it you...) (Play 3 times)
G---------------------------------------------|
D---------------------------------------------|
A------------------9--9--9--9--9---7-7-7-7-7--|
E-7-7-7-7-7-7-7-7-----------------------------|

Bridge: 
G-------------------------------------------------------|
D-------------------------------------------------------|
A-----------------------------------4-------------------|
E-5-5-5-5-5-5-5-5--4-4-4-4-4-4-4-4-----2-2-2-2-2-2-2-2--|

G---------------------------------------------------------------------|
D---------------------------------------------------------------------|
A--------------------------------------9--9--9--9--9--9--9--9--9--9---|
E-5!-5-5-5-5-5-5-5-5--4-4-4-4-4-4-4-4---------------------------------|

order is easy to figure out
            
Submit corrections

comments powered by Disqus
↑ Back to top | Headstones Bass for Cut Me Up. Lyrics for acoustic guitar and electric guitar. 1 Tablatures and chords are parodies/interpretations of the original songs. You may use it for private study, scholarship, research or language learning purposes only