» » »

Headstones, Cut Me Up Tabs (ver.1)

Artists:  A B C D E F G H I J K L M N O P Q R S T U V W X Y Z # 

Cut Me Up Tabs (ver.1)

Headstones Tabs
Rating:
4/5 (1 vote)
Cut Me Up lessons Tabs too difficult? Try these video lessons and learn fast
                Cut Me Up- Headstones
Tuning: Standard

Yet another easy but fun Headstones song! The intro rocks large!!

Intro: (second time, do a pickscr*pe instead of the E5)
e -------------------------------------------------
B -------------------------------------------------
G -------------6--6-6-6-6--------------9--9-9-9-9--
D -9--9-9-9-9--6--6-6-6-6--7--7-7-7-7--9--9-9-9-9--
A -9--9-9-9-9--4--4-4-4-4--7--7-7-7-7--7--7-7-7-7--
E -7--7-7-7-7--------------5--5-5-5-5--------------

Verses: sometimes palm muted
e ---------------------------------------------------------------------
B ---------------------------------------------------------------------
G ------------------6-6-6-6-6-6-6-6-------------------9-9-9-9-9-9-9-9--
D -9-9-9-9-9-9-9-9--6-6-6-6-6-6-6-6--7-7-7-7-7-7-7-7--9-9-9-9-9-9-9-9--
A -9-9-9-9-9-9-9-9--4-4-4-4-4-4-4-4--7-7-7-7-7-7-7-7--7-7-7-7-7-7-7-7--
E -7-7-7-7-7-7-7-7-------------------5-5-5-5-5-5-5-5-------------------

Chorus:
e ----------------|-----------------------------------------
B ----------------|-----------------------------------------
G -11-11-11-11-11-|-9--9-9-9--6--6-6-6--9--9-9-9--6--6-6-6--
D -11-11-11-11-11-|-9--9-9-9--6--6-6-6--9--9-9-9--6--6-6-6--
A -9--9--9--9--9--|-7--7-7-7--4--4-4-4--7--7-7-7--4--4-4-4--
E ----------------|-----------------------------------------

e -this part is played 3 times-----------------
B ---------------------------------------------
G ------------------11-11-11-11-11--9-9-9-9-9--
D -9-9-9-9-9-9-9-9--11-11-11-11-11--9-9-9-9-9--
A -9-9-9-9-9-9-9-9--9--9--9--9--9---7-7-7-7-7--
E -7-7-7-7-7-7-7-7-----------------------------

Bridge: You'll be able to tell what's palm muted or not
e --------------------------------------------------------
B --------------------------------------------------------
G -----------------------------------6!-------------------
D -7-7-7-7-7-7-7-7--6-6-6-6-6-6-6-6--6!--4-4-4-4-4-4-4-4--
A -7-7-7-7-7-7-7-7--6-6-6-6-6-6-6-6--4!--4-4-4-4-4-4-4-4--
E -5-5-5-5-5-5-5-5--4-4-4-4-4-4-4-4------2-2-2-2-2-2-2-2--

e ---------------------------------------------------------------------
B ---------------------------------------------------------------------
G --------------------------------------11-11-11-11-11-11-11-11-11-11--
D -7!-7-7-7-7-7-7-7-7--6-6-6-6-6-6-6-6--11-11-11-11-11-11-11-11-11-11--
A -7!-7-7-7-7-7-7-7-7--6-6-6-6-6-6-6-6--9--9--9--9--9--9--9--9--9--9---
E -5!-5-5-5-5-5-5-5-5--4-4-4-4-4-4-4-4---------------------------------

Then plays chorus till finish. End on a B5.

Chords: F#5: 244xxx   G#5: 466xxx   A5: 577xxx   B5: 799xxx
        C#5: x466xx   E5: x799xx   F#5(2): x9(11)(11)xx
            

comments powered by Disqus
↑ Back to top | Headstones Tabs for Cut Me Up. Lyrics for acoustic guitar and electric guitar. Tablatures and chords are parodies/interpretations of the original songs. You may use it for private study, scholarship, research or language learning purposes only