>
 >
Fool The World

Fool The World Guitar Tabs

Hazen Street - Fool The World chords, tabs, tablatures, lyrics

Guitar lessons | Add/correct | Request | Top 50 tabs Artists:  A B C D E F G H I J K L M N O P Q R S T U V W X Y Z 0-9

Fool The World Guitar Tabs – Hazen Street

CD, Sheet music, Poster

Do you like Fool The World? Share with your friends now
TabsTabs v2
                        Hazen Street: Fool The World


   I tabbed this song because v1 had some major mistakes in some parts, especially in 
I'm really confident this is how to play it. Enjoy!


 Legend

x=palm mute
~=let the note ring
h=hammer on
p=pull-off
s=slide


----------------------------------------------------------------------------
  Update:Wed, Aug. 15, 2007,   I updated this tab the day after it was     submitted. 
were major mmistakes. I must have been drunk when I made it.
----------------------------------------------------------------------------

  -Intro-

e|--------------|
B|--------------|
G|--------------|x8
D|-----0------2-|
A|---2----0h2---|
E|0-------------|


  -Verse #1-

I've been to many places...
e|--------------|
B|--------------|
G|--------------|x8
D|-----0------2-|
A|--------0-2---|
E|0-------------|
  x       x x


Lower East Side where...
e|--------------------------------|
B|--------------------------------|
G|----------------2-2-2-2-2-2-2-2-|
D|4-4-4-4-4-4-4-4-2-2-2-2-2-2-2-2-|
A|4-4-4-4-4-4-4-4-0-0-0-0-0-0-0-0-|
E|2-2-2-2-2-2-2-2-----------------|


'Cause I see many talk it...
e|--------------|
B|--------------|
G|--------------|x2
D|-----0------2-|
A|---2----0h2---|
E|0-------------|


On the West Side they...
e|--------------------------------|
B|--------------------------------|
G|----------------2-2-2-2-2-2-2-2-|
D|4-4-4-4-4-4-4-4-2-2-2-2-2-2-2-2-|
A|4-4-4-4-4-4-4-4-0-0-0-0-0-0-0-0-|
E|2-2-2-2-2-2-2-2-----------------|


  -Chorus #1- (Strumming rhythms not shown. Listen carefully to figure it out)

'see ya walkin' around...
e|----------------------------------------|
B|----------------------------------------|
G|--------2-2-2-2-2-2---------2-2-2-2-2-2-|x3
D|2-2-2-2-2-2-2-2-2-2-4-4-4-4-2-2-2-2-2-2-|
A|2-2-2-2-0-0-0-0-0-0-4-4-4-4-0-0-0-0-0-0-|
E|0-0-0-0-------------2-2-2-2-------------|


So fool the world...
e|--------------------------------------------|
B|--------------------------------------------|
G|--------2-2-2-2-2-2---------2-2-2-2-2-2-2-2-|
D|2-2-2-2-2-2-2-2-2-2-4-------2-2-2-2-2-2-2-2-|
A|2-2-2-2-0-0-0-0-0-0-4-------0-0-0-0-0-0-0-0-|
E|0-0-0-0-------------2-----------------------|

  -Pre-verse-

e|--------------|
B|--------------|
G|--------------|x4
D|-----0------2-|
A|---2----0h2---|
E|0-------------|

  -Verse #2-

In my home, alone...
e|--------------|
B|--------------|
G|--------------|x8
D|-----0------2-|
A|--------0-2---|
E|0-------------|
  x       x x


Lower East Side where...
e|--------------------------------|
B|--------------------------------|
G|----------------2-2-2-2-2-2-2-2-|
D|4-4-4-4-4-4-4-4-2-2-2-2-2-2-2-2-|
A|4-4-4-4-4-4-4-4-0-0-0-0-0-0-0-0-|
E|2-2-2-2-2-2-2-2-----------------|


'Cause I see many talk it...
e|--------------|
B|--------------|
G|--------------|
D|-----0------2-|
A|---2----0h2---|
E|0-------------|


On the West Side they...
e|--------------------------------|
B|--------------------------------|
G|----------------2-2-2-2-2-2-2-2-|
D|4-4-4-4-4-4-4-4-2-2-2-2-2-2-2-2-|
A|4-4-4-4-4-4-4-4-0-0-0-0-0-0-0-0-|
E|2-2-2-2-2-2-2-2-----------------|


  -Chorus #2-

'see ya walkin' around...
e|----------------------------------------|
B|----------------------------------------|
G|--------2-2-2-2-2-2---------2-2-2-2-2-2-|x3
D|2-2-2-2-2-2-2-2-2-2-4-4-4-4-2-2-2-2-2-2-|
A|2-2-2-2-0-0-0-0-0-0-4-4-4-4-0-0-0-0-0-0-|
E|0-0-0-0-------------2-2-2-2-------------|


So fool the world...
e|----------------------|
B|----------------------|
G|--------2-2-2-2-2-2---|
D|2-2-2-2-2-2-2-2-2-2-4-|
A|2-2-2-2-0-0-0-0-0-0-4-|
E|0-0-0-0-------------2-|

  -Bridge-

I see you come and go...
e|--------------------------------|
B|--------------------------------|
G|----------------2-2-2-2-2-2-2-2-|x2
D|4-4-4-4-4-4-4-4-2-2-2-2-2-2-2-2-|
A|4-4-4-4-4-4-4-4-0-0-0-0-0-0-0-0-|
E|2-2-2-2-2-2-2-2-----------------|
  x x x x x x x x x x x x x x x x


I see you come and go...
e|--------------------------------|
B|--------------------------------|
G|----------------2-2-2-2-2-2-2-2-|
D|4-4-4-4-4-4-4-4-2-2-2-2-2-2-2-2-|
A|4-4-4-4-4-4-4-4-0-0-0-0-0-0-0-0-|
E|2-2-2-2-2-2-2-2-----------------|
  x x   x x x   x x x   x x x   x


You come from Front Street...
e|--------------------------------|
B|--------------------------------|
G|----------------4~--------------|
D|4-4-4-4-4-4-4-4-4~--------------|
A|4-4-4-4-4-4-4-4-2~--------------|
E|2-2-2-2-2-2-2-2-----------------|
  x x   x x x   x


  -Solo- (Sorry if the solo is wrong. I did my best)

e|----------|----------------------------------------------|
B|5-h-7-p-5-|9---9---9---7---5---7---5---7---9---7---5---5-|
G|----------|----------------------------------------------|
D|----------|----------------------------------------------|
A|----------|----------------------------------------------|
E|----------|----------------------------------------------|

e|----------------------------------------------|
B|9---9-9-9---7---5---7---5---7---9---7---5---5-|
G|----------------------------------------------|
D|----------------------------------------------|
A|----------------------------------------------|
E|----------------------------------------------|


e|-----------------------------------------------------12-----|
B|---9-9-9---9-10-10--10--10--10-10-12---12---12---10------10-|
G|------------------------------------------------------------|
D|------------------------------------------------------------|
A|------------------------------------------------------------|
E|------------------------------------------------------------|


e|---12---------------------------|
B|9------9------9-----------------|
G|----------11-----11--9-s-5-s-21-|
D|--------------------------------|
A|--------------------------------|
E|--------------------------------|


   A second guitar plays this during the solo:

e|----------------------------------------|
B|----------------------------------------|
G|--------2-2-2-2-2-2---------2-2-2-2-2-2-|x4
D|2-2-2-2-2-2-2-2-2-2-4-4-4-4-2-2-2-2-2-2-|
A|2-2-2-2-0-0-0-0-0-0-4-4-4-4-0-0-0-0-0-0-|
E|0-0-0-0-------------2-2-2-2-------------|

   -Pre-chorus-

Lower East Side where...
e|--------------------------------|
B|--------------------------------|
G|----------------2-2-2-2-2-2-2-2-|
D|4-4-4-4-4-4-4-4-2-2-2-2-2-2-2-2-|
A|4-4-4-4-4-4-4-4-0-0-0-0-0-0-0-0-|
E|2-2-2-2-2-2-2-2-----------------|


'Cause I see many talk it...
e|-------------|
B|-------------|
G|-------------|x2
D|-----0-----2-|
A|---2---0h2---|
E|0------------|


On the West Side they...
e|--------------------------------|
B|--------------------------------|
G|----------------2-2-2-2-2-2-2-2-|
D|4-4-4-4-4-4-4-4-2-2-2-2-2-2-2-2-|
A|4-4-4-4-4-4-4-4-0-0-0-0-0-0-0-0-|
E|2-2-2-2-2-2-2-2-----------------|

   -Chorus #3

'See ya walkin' around...
e|----------------------------------------|
B|----------------------------------------|
G|----------------------------------------|
D|----------------------------------------|
A|----------------------------------------|
E|----------------------------------------|


Thinking your hard...
e|----------------------------------------|
B|----------------------------------------|
G|--------2-2-2-2-2-2---------2-2-2-2-2-2-|x6
D|2-2-2-2-2-2-2-2-2-2-4-4-4-4-2-2-2-2-2-2-|
A|2-2-2-2-0-0-0-0-0-0-4-4-4-4-0-0-0-0-0-0-|
E|0-0-0-0-------------2-2-2-2-------------|

So fool the world...
e|----------------------------------------|
B|----------------------------------------|
G|--------2-2-2-2-2-2---------------------|
D|2-2-2-2-2-2-2-2-2-2-4-------------------|
A|2-2-2-2-0-0-0-0-0-0-4-------------------|
E|0-0-0-0-------------2-------------------|


Fool the world, but you...
e|--------------------------------|
B|--------------------------------|
G|--------2-2-2-2---------2-2-2-2-|x3
D|2-2-2-2-2-2-2-2-4-4-4-4-2-2-2-2-|
A|2-2-2-2-0-0-0-0-4-4-4-4-0-0-0-0-|
E|0-0-0-0---------2-2-2-2---------|

Fool the world, but you can't fool me!
e|-----------------------------------|
B|-----------------------------------|
G|--------2-2-2-2---------22222222---|
D|2-2-2-2-2-2-2-2-4-------22222222-2-|
A|2-2-2-2-0-0-0-0-4-------00000000-2-|
E|0-0-0-0---------2-------00000000-0-|


           Please rate and comment on even the smallest details.





Comments


Popular Hazen Street tabs & chords
Are You Ready Intro Tabs
Are You Ready? Tabs
Back Home Tabs
Back Home 1 Tabs
Crossroads Tabs
Fool The World 1 Tabs


Song lyrics



↑ Back to top | Tablatures and chords are parodies/interpretations of the original songs. You may use it for private study, scholarship, research or language learning purposes only
© 2014 AZChords.com Contact us | Privacy policy | DMCA | Add/correct tabs | Request tabs | Top 50 tabs