» » »

Hazen Street, Back Home Tabs (ver.2)

Artists:  A B C D E F G H I J K L M N O P Q R S T U V W X Y Z # 

Back Home Tabs (ver.2)

Hazen Street Tabs
 Rating:
3.8/5 (5 votes)
Back Home lessons Tabs too difficult? Try these video lessons and learn fast
1
                intro(This part is played twice):

|----------6-------------------6-------------------6--------|
|-----------------------------------------------------------|
|-8-8-8-8-----8-8-8---6-6-6-6-----6-6-6---4-4-4-4-----4-4-4-|
|-----------------------------------------------------------|
|-----------------------------------------------------------|
|-----------------------------------------------------------|


|-----------------------------------------------------------|
|-9-9-9-9--7-7-7--9-----------------------------------------|
|-----------------------------------------------------------|
|-----------------------------------------------------------|
|-----------------------------------------------------------|
|-----------------------------------------------------------|


Other guitar:

Bm, Cm# (Power chords)

|-----------------------------------------------------------|
|-----------------------------------------------------------|
|---------------------------1-------------------------------|
|---4-6-4------4-6-4------4---4------4-6----4-6-------------|
|-6-------6--4-------4--2-------2--4------5-----------------|
|-----------------------------------------------------------|


Bass:

|-----------------------------------------------------------|
|-----------------------------------------------------------|
|-----------------------------------------------------------|
|-----------------------------------------------------------|
|--6--6^4--4^2--2^4--4^-------------------------------------|
|-----------------------------------------------------------|


Chords:

D#, C#, B

Other chords:

B, C#, D#, D#
            
Submit corrections

comments powered by Disqus
↑ Back to top | Hazen Street Tabs for Back Home. Lyrics for acoustic guitar and electric guitar. 1 Tablatures and chords are parodies/interpretations of the original songs. You may use it for private study, scholarship, research or language learning purposes only