» » »

Are You Ready? Tabs (ver.2)

Artists:  A B C D E F G H I J K L M N O P Q R S T U V W X Y Z # 

Are You Ready? Tabs (ver.2)

Hazen Street
Rating:
0/5 (0 votes)

Hard to play? Try these video lessons and learn fast.
                INTRO
		                                                         2x
e|------------------------------------------------------------------------|
B|------------------------------------------------------------------------|
G|------------------------------------------------------------------------|
D|\2-2-2-3-5-5-5-3-0-0-0-3-2-2-2-0-2-2-2-3-5-5-5-3-0-0-0-3-2-2-2-2(~)-----|
A|\2-2-2-3-5-5-5-3-0-0-0-3-2-2-2-0-2-2-2-3-5-5-5-3-0-0-0-3-2-2-2-2(~)-----|
D|\2-2-2-3-5-5-5-3-0-0-0-3-2-2-2-0-2-2-2-3-5-5-5-3-0-0-0-3-2-2-2-2(~)-----|


1.VERSE
		                                                    4x
e|-------------------------------------------------------------------|
B|-------------------------------------------------------------------|
G|-------------------------------------------------------------------|
D|2-2-2-2-3-3-3-3-5-5-5-8-7------------------------------------------|
A|2-2-2-2-3-3-3-3-5-5-5-8-7------------------------------------------|
D|2-2-2-2-3-3-3-3-5-5-5-8-7------------------------------------------|
  P.M.-----------------|

PRE-CHORUS

e|------------------------------------------------------|
B|------------------------------------------------------|
G|------------------------------------------------------|
D|8-8-8-8-5-5-5-5-8-7-8-8-8--8-10-10-10-10-10-10-10-10--|
A|8-8-8-8-5-5-5-5-8-7-8-8-8--8-10-10-10-10-10-10-10-10--|
D|8-8-8-8-5-5-5-5-8-7-8-8-8--8-10-10-10-10-10-10-10-----|


1.CHORUS
		                                                         2x
e|------------------------------------------------------------------------|
B|------------------------------------------------------------------------|
G|------------------------------------------------------------------------|
D|\2-2-2-3-5-5-5-3-0-0-0-3-2-2-2-0-2-2-2-3-5-5-5-3-0-0-0-3-2-2-2-2(~)-----|
A|\2-2-2-3-5-5-5-3-0-0-0-3-2-2-2-0-2-2-2-3-5-5-5-3-0-0-0-3-2-2-2-2(~)-----|
D|\2-2-2-3-5-5-5-3-0-0-0-3-2-2-2-0-2-2-2-3-5-5-5-3-0-0-0-3-2-2-2-2(~)-----|



2.VERSE
		                                                    4x
e|-------------------------------------------------------------------|
B|-------------------------------------------------------------------|
G|-------------------------------------------------------------------|
D|2-2-2-2-3-3-3-3-5-5-5-8-7------------------------------------------|
A|2-2-2-2-3-3-3-3-5-5-5-8-7------------------------------------------|
D|2-2-2-2-3-3-3-3-5-5-5-8-7------------------------------------------|
  P.M.-----------------|


PRE-CHORUS

e|------------------------------------------------------|
B|------------------------------------------------------|
G|------------------------------------------------------|
D|8-8-8-8-5-5-5-5-8-7-8--8-8-8-10-10-10-10-10-10-10-10--|
A|8-8-8-8-5-5-5-5-8-7-8--8-8-8-10-10-10-10-10-10-10-10--|
D|8-8-8-8-5-5-5-5-8-7-8--8-8-8-10-10-10-10-10-10-10-----|



2.CHORUS
		                                                         2x
e|------------------------------------------------------------------------|
B|------------------------------------------------------------------------|
G|------------------------------------------------------------------------|
D|2-2-2-3-5-5-5-3-0-0-0-3-2-2-2-0-2-2-2-3-5-5-5-3-0-0-0-3-2-2-2-2---------|
A|2-2-2-3-5-5-5-3-0-0-0-3-2-2-2-0-2-2-2-3-5-5-5-3-0-0-0-3-2-2-2-2---------|
D|2-2-2-3-5-5-5-3-0-0-0-3-2-2-2-0-2-2-2-3-5-5-5-3-0-0-0-3-2-2-2-2---------|



BRIDGE
	
e|-------------------------12\-----|
B|-------------------------12\-----|
G|-------------------------12\-----|
D|2-2-2---3-3-5-5---2-2-2--12\-----|
A|2-2-2---3-3-5-5---2-2-2--12\-----|
D|2-2-2---3-3-5-5---2-2-2--12\-----|
  P.M.-------------------|

e|-----------------------------------------------------|
B|-----------------------------------------------------|
G|-----------------------------------------------------|
D|2-0-3-0-3-5-2-0-3-0-3-5-2-0-3-0-3-5-2-0-3-0-3-5------|
A|2-0-3-0-3-5-2-0-3-0-3-5-2-0-3-0-3-5-2-0-3-0-3-5------|
D|2-0-3-0-3-5-2-0-3-0-3-5-2-0-3-0-3-5-2-0-3-0-3-5------|



3.VERSE
		                                                    3x
e|-------------------------------------------------------------------|
B|-------------------------------------------------------------------|
G|-------------------------------------------------------------------|
D|2-2-2-2-3-3-3-3-5-5-5-8-7------------------------------------------|
A|2-2-2-2-3-3-3-3-5-5-5-8-7------------------------------------------|
D|2-2-2-2-3-3-3-3-5-5-5-8-7------------------------------------------|
  P.M.-----------------|
		
e|-------------------------------------------------------------------|
B|-------------------------------------------------------------------|
G|----------------5-5-5-5-5-5-5-5------------------------------------|
D|2-2-2-2-3-3-3-3-5-5-5-5-5-5-5-5------------------------------------|
A|2-2-2-2-3-3-3-3-3-3-3-3-3-3-3-3------------------------------------|
D|2-2-2-2-3-3-3-3----------------------------------------------------|
  P.M.-----------|


3.CHORUS
		                                                         3x
e|------------------------------------------------------------------------|
B|------------------------------------------------------------------------|
G|------------------------------------------------------------------------|
D|2-2-2-3-5-5-5-3-0-0-0-3-2-2-2-0-2-2-2-3-5-5-5-3-0-0-0-3-2-2-2-2---------|
A|2-2-2-3-5-5-5-3-0-0-0-3-2-2-2-0-2-2-2-3-5-5-5-3-0-0-0-3-2-2-2-2---------|
D|2-2-2-3-5-5-5-3-0-0-0-3-2-2-2-0-2-2-2-3-5-5-5-3-0-0-0-3-2-2-2-2---------|

e|------------------------------------------------------------------------|
B|------------------------------------------------------------------------|
G|------------------------------------------------------------------------|
D|2-2-2-3-5-5-5-3-0-0-0-3-2-2-2-0-2-2-2-3-5-5-5-3-0-0-0-3-2-2-2-2--2-2-2--|
A|2-2-2-3-5-5-5-3-0-0-0-3-2-2-2-0-2-2-2-3-5-5-5-3-0-0-0-3-2-2-2-2--2-2-2--|
D|2-2-2-3-5-5-5-3-0-0-0-3-2-2-2-0-2-2-2-3-5-5-5-3-0-0-0-3-2-2-2-2--2-2-2--|
		                                                   P.M.--|


Listen to the song to get the right rhythm .
            
Hard to play? Try these video lessons and learn fast. | Correct




comments powered by Disqus
↑ Back to top | Tablatures and chords are parodies/interpretations of the original songs. You may use it for private study, scholarship, research or language learning purposes only