» » »

Supreme Bass tabs (ver.1)

Artists:  A B C D E F G H I J K L M N O P Q R S T U V W X Y Z # 

Supreme Bass tabs (ver.1)

Haywire
Rating:
0/5 (0 votes)

Hard to play? Try these video lessons and learn fast.
                Haywire

Intro
G------------------------------------------------------------
D------------------------------------------------------------
A-5------5-------------------5-----5-----------------------
D---0-0----0-0--333-555----0-0---0-0--555-333------ 
8x

Chorus
G------------------------------------------------------------
D------------------------------------------------------------
A------------------------------------------------------------
D--0--0--0--0--3--3--3--3--7--7--7--7--7--7--7--7---- 
3x

Chrorus2
G------------------------------------------------------------
D------------------------------------------------------------
A------------------------------------------------------------
D--0--0--0--0--3--3--3--3--7--7--7--7--7--7--7--7----

Bridge
G-------------------------------------------------------------------------------------
D-------------------------------------------------------------------------------------
A-------------------------------------------------------------------------------------
D--8--8--8--8--3--3--3--3--7--7--7--7--0--0--0--0--3--3--3--3--7--7--7--7-

Intro 4x
Chorus 3x
Chorus2 1x
Bridge 1x
Intro 4x

Bridge2
G-------------------------------------------------------------------------------------
D-------------------------------------------------------------------------------------
A-------------------------------------------------------------------------------------
D--8--8--8--8--3--3--3--3--7--7--7--7--0--0--0--0--0--0--0--0--0--0--0--0-

Bridge 1x

Intro 4x and stop immediatly
            
Hard to play? Try these video lessons and learn fast. | Correct




comments powered by Disqus
↑ Back to top | Tablatures and chords are parodies/interpretations of the original songs. You may use it for private study, scholarship, research or language learning purposes only