>
 >
Long And Lonely Road

Long And Lonely Road Guitar Tabs

Hawk Nelson - Long And Lonely Road chords, tabs, tablatures, lyrics

Guitar lessons | Add/correct | Request | Top 50 tabs Artists:  A B C D E F G H I J K L M N O P Q R S T U V W X Y Z 0-9

Long And Lonely Road Guitar Tabs – Hawk Nelson

CD, Sheet music, Poster

Do you like Long And Lonely Road? Share with your friends now
Bass TabsTabs
Band: Hawk Nelson
Copyright 2004 Tooth & Nail records

Tuning: Half step down (Eb-Ab-Db-Gb-Bb-Eb)


Intro:
Eb|--------------------------------------------------------------------|
Bb|--------------------------------------------------------------------|
Gb|--5-5-5-5-5-5-5-5-5-5-5-5-5-5-5-5-----------------------------------|
Db|--5-5-5-5-5-5-5-5-5-5-5-5-5-5-5-5--6-6-6-6-6-6-6-6-6-6-6-6-6-6-6-6--|
Ab|--3-3-3-3-3-3-3-3-3-3-3-3-3-3-3-3--6-6-6-6-6-6-6-6-6-6-6-6-6-6-6-6--|
Eb|-----------------------------------4-4-4-4-4-4-4-4-4-4-4-4-4-4-4-4--|

Eb|--------------------------------------------------------------------|
Bb|--------------------------------------------------------------------|
Gb|--5-5-5-5--5-5-5--5-5-5--5-5-5--------------------------------------|
Db|--5-5-5-5--5-5-5--5-5-5--5-5-5--6-6-6-6-6-6-6-6-6-6-6-6-6-6-6-6-----|
Ab|--3-3-3-3--3-3-3--3-3-3--3-3-3--6-6-6-6-6-6-6-6-6-6-6-6-6-6-6-6-----|
Eb|--------------------------------4-4-4-4-4-4-4-4-4-4-4-4-4-4-4-4-----|


Verse 1:
Eb|--------------------------------------------------------------|
Bb|--------------------------------------------------------------|
Gb|--5-5--5-5-5--5-5-5--5-5-5--5---------------------------4-4---|
Db|--5-5--5-5-5--5-5-5--5-5-5--5--3-3--3-3-3--3--2-2--2-2--4-4---|
Ab|--3-3--3-3-3--3-3-3--3-3-3--3--3-3--3-3-3--3--2-2--2-2--2-2---|
Eb|-------------------------------1-1--1-1-1--1--0-0--0-0--------|

Eb|--------------------------------------------------------------|
Bb|--------------------------------------------------------------|
Gb|--5-5--5-5-5--5-5-5--5-5-5--5---------------------------------|
Db|--5-5--5-5-5--5-5-5--5-5-5--5--3-3--3-3-3--3--2-2--2-2-2-2-2--|
Ab|--3-3--3-3-3--3-3-3--3-3-3--3--3-3--3-3-3--3--2-2--2-2-2-2-2--|
Eb|-------------------------------1-1--1-1-1--1--0-0--0-0-0-0-0--|


Pre-Chorus:
Eb|----------------------------------------------------------------------|
Bb|----------------------------------------------------------------------|
Gb|----------------------------------------------------------------------|
Db|----------------------------------------------------------------------|
Ab|--3-3-3-3-3-3-3-3--5-5-5-5-5-5-5-5--7-7-7-7-7-7-7-7--5-5-5-5-5-5-5-5--|
Eb|--1-1-1-1-1-1-1-1--3-3-3-3-3-3-3-3--5-5-5-5-5-5-5-5--3-3-3-3-3-3-3-3--|
     . . . . . . . .  . . . . . . . .  . . . . . . . .  . . . . . . . .

Eb|----------------------------------------|
Bb|----------------------------------------|
Gb|----------------------------------------|
Db|--3-3-3-3-3-3-3-3--5-5-5-5-5-5-5-5--2~--|
Ab|--3-3-3-3-3-3-3-3--5-5-5-5-5-5-5-5--2~--|
Eb|--1-1-1-1-1-1-1-1--3-3-3-3-3-3-3-3--0~--|
     . . . .


Chorus:
Eb|---------------------------------------------------------------------------|
Bb|---------------------------------------------------------------------------|
Gb|--xxxx-5-5-5-5-5-5-5-5-------------------5-5-5-5-5-5-5-5-------------------|
Db|--xxxx-5-5-5-5-5-5-5-5--3-3-3-3-3-3-3-3--5-5-5-5-5-5-5-5--5-5-5-5-5-5-5-5--|
Ab|--xxxx-3-3-3-3-3-3-3-3--3-3-3-3-3-3-3-3--3-3-3-3-3-3-3-3--5-5-5-5-5-5-5-5--|
Eb|------------------------1-1-1-1-1-1-1-1-------------------3-3-3-3-3-3-3-3--|

Eb|------------------------------------------------------|
Bb|------------------------------------------------------|
Gb|--5-5-5-5-5-5-5-5-------------------5-5-5-5-----------|
Db|--5-5-5-5-5-5-5-5--3-3-3-3-3-3-3-3--5-5-5-5--5-5-5-5--|
Ab|--3-3-3-3-3-3-3-3--3-3-3-3-3-3-3-3--3-3-3-3--5-5-5-5--|
Eb|-------------------1-1-1-1-1-1-1-1-----------3-3-3-3--|

Eb|--------------------------------------------------------------------|
Bb|--------------------------------------------------------------------|
Gb|--5-5-5-5-5-5-5-5-5-5-5-5-5-5-5-5-----------------------------------|
Db|--5-5-5-5-5-5-5-5-5-5-5-5-5-5-5-5--6-6-6-6-6-6-6-6-6-6-6-6-6-6-6-6--|
Ab|--3-3-3-3-3-3-3-3-3-3-3-3-3-3-3-3--6-6-6-6-6-6-6-6-6-6-6-6-6-6-6-6--|
Eb|-----------------------------------4-4-4-4-4-4-4-4-4-4-4-4-4-4-4-4--|


Verse 2:
Eb|------------------------------------------------------|
Bb|--5--5--5--5--5--5--5-5-5-----------------------------|
Gb|--5--5--5--5--5--5--5-5-5---5--5--5--5---4--4--4-4-4--|  x2
Db|----------------------------6--6--6--6---5--5--5-5-5--|
Ab|------------------------------------------------------|
Eb|------------------------------------------------------|


Pre-Chorus 2:
Eb|----------------------------------------------------------------------|
Bb|----------------------------------------------------------------------|
Gb|----------------------------------------------------------------------|
Db|----------------------------------------------------------------------|
Ab|--3-3-3-3-3-3-3-3--5-5-5-5-5-5-5-5--7-7-7-7-7-7-7-7--5-5-5-5-5-5-5-5--|
Eb|--1-1-1-1-1-1-1-1--3-3-3-3-3-3-3-3--5-5-5-5-5-5-5-5--3-3-3-3-3-3-3-3--|
     . . . . . . . .  . . . . . . . .  . . . . . . . .  . . . . . . . .

Eb|--------------------|
Bb|--------------------|
Gb|--------------------|
Db|--3~-----5~-----2~--|
Ab|--3~-----5~-----2~--|
Eb|--1~-----3~-----0~--|


Chorus 2:
Eb|---------------------------------------------------------------------------|
Bb|---------------------------------------------------------------------------|
Gb|--xxxx-5-5-5-5-5-5-5-5-------------------5-5-5-5-5-5-5-5-------------------|
Db|--xxxx-5-5-5-5-5-5-5-5--3-3-3-3-3-3-3-3--5-5-5-5-5-5-5-5--5-5-5-5-5-5-5-5--|
Ab|--xxxx-3-3-3-3-3-3-3-3--3-3-3-3-3-3-3-3--3-3-3-3-3-3-3-3--5-5-5-5-5-5-5-5--|
Eb|------------------------1-1-1-1-1-1-1-1-------------------3-3-3-3-3-3-3-3--|

Eb|------------------------------------------------------|
Bb|------------------------------------------------------|
Gb|--5-5-5-5-5-5-5-5-------------------5-5-5-5-----------|
Db|--5-5-5-5-5-5-5-5--3-3-3-3-3-3-3-3--5-5-5-5--5-5-5-5--|
Ab|--3-3-3-3-3-3-3-3--3-3-3-3-3-3-3-3--3-3-3-3--5-5-5-5--|
Eb|-------------------1-1-1-1-1-1-1-1-----------3-3-3-3--|


Bridge:
Eb|----------------------------------------------------------|
Bb|----------------------------------------------------------|
Gb|-------------7------5------4-------------7------9------7--|
Db|------3----7------5------4--------3----7------9------7----|
Ab|----3----5------3------2--------3----5------7------5------|
Eb|--1---------------------------1---------------------------|

Eb|----------------------------------------------------------|
Bb|----------------------------------------------------------|
Gb|------------------------------------------5------4--------|
Db|--3-3-3-3-3-3-3-3--5-5-5-5-5-5-5-5------5------4----------|
Ab|--3-3-3-3-3-3-3-3--5-5-5-5-5-5-5-5----3------2------------|
Eb|--1-1-1-1-1-1-1-1--3-3-3-3-3-3-3-3------------------------|
     . . . . . . . .  . . . . . . . .

Eb|-------------------------------------------------------------------------|
Bb|-------------------------------------------------------------------------|
Gb|-------------------------------------------------------------------------|
Db|--3-3--3-3-3--3--5-5--5-5-5--5---2~-----2-2-2-2-2-2-2-2-2-2-2-2-2-2-2-2--|
Ab|--3-3--3-3-3--3--5-5--5-5-5--5---2~-----2-2-2-2-2-2-2-2-2-2-2-2-2-2-2-2--|
Eb|--1-1--1-1-1--1--3-3--3-3-3--3---0~-----0-0-0-0-0-0-0-0-0-0-0-0-0-0-0-0--|
                                           . . . . . . . .


Chorus 3:
Eb|-------------------------------------|
Bb|-------------------------------------|
Gb|------5------5--xxxx------5----------|
Db|----5------5----xxxx----5----   <----|pick slide
Ab|--3------3------xxxx--3--------------|
Eb|-------------------------------------|

Eb|---------------------------------------------------------------|
Bb|---------------------------------------------------------------|
Gb|--5-5-5-5-5-5-5-5-------------------5-5-5-5-----------5-5-5-5--|
Db|--5-5-5-5-5-5-5-5--3-3-3-3-3-3-3-3--5-5-5-5--5-5-5-5--5-5-5-5--|
Ab|--3-3-3-3-3-3-3-3--3-3-3-3-3-3-3-3--3-3-3-3--5-5-5-5--3-3-3-3--|
Eb|-------------------1-1-1-1-1-1-1-1-----------3-3-3-3-----------|

Eb|---------------------------------------------------------------------------|
Bb|---------------------------------------------------------------------------|
Gb|--xxxx-5-5-5-5-5-5-5-5-------------------5-5-5-5-5-5-5-5-------------------|
Db|--xxxx-5-5-5-5-5-5-5-5--3-3-3-3-3-3-3-3--5-5-5-5-5-5-5-5--5-5-5-5-5-5-5-5--|
Ab|--xxxx-3-3-3-3-3-3-3-3--3-3-3-3-3-3-3-3--3-3-3-3-3-3-3-3--5-5-5-5-5-5-5-5--|
Eb|------------------------1-1-1-1-1-1-1-1-------------------3-3-3-3-3-3-3-3--|

Eb|---------------------------------------------------------------|
Bb|---------------------------------------------------------------|
Gb|--5-5-5-5-5-5-5-5-------------------5-5-5-5-----------5-5-5-5--|
Db|--5-5-5-5-5-5-5-5--3-3-3-3-3-3-3-3--5-5-5-5--5-5-5-5--5-5-5-5--|
Ab|--3-3-3-3-3-3-3-3--3-3-3-3-3-3-3-3--3-3-3-3--5-5-5-5--3-3-3-3--|
Eb|-------------------1-1-1-1-1-1-1-1-----------3-3-3-3-----------|


Outro:
Eb|--------------------------------------|
Bb|--5-5-5-5-5--3-3-3--5-5-5-5-5--6-6-6--|
Gb|--5-5-5-5-5--4-4-4--5-5-5-5-5--7-7-7--|
Db|--------------------------------------|
Ab|--------------------------------------|
Eb|--------------------------------------|

Eb|--------------------------------------|
Bb|--5-5-5-5-5--3-3-3--------------------|
Gb|--5-5-5-5-5--4-4-4--5-5-5-5-5--4-4-4--|
Db|--------------------7-7-7-7-7--5-5-5--|
Ab|--------------------------------------|
Eb|--------------------------------------|

Eb|--------------------------------------------------------------------------|
Bb|--------------------------------------------------------------------------|
Gb|--5-5-5-5-5---------5-5-5-5-5--7-7-7--5-5-5-5-5---------------------------|
Db|--5-5-5-5-5--3-3-3--5-5-5-5-5--7-7-7--5-5-5-5-5--3-3-3--7-7-7-7-7--5-5-5--|
Ab|--3-3-3-3-3--3-3-3--3-3-3-3-3--5-5-5--3-3-3-3-3--3-3-3--7-7-7-7-7--5-5-5--|
Eb|-------------1-1-1-------------------------------1-1-1--5-5-5-5-5--3-3-3--|

Eb|--------------------------------------|
Bb|--------------------------------------|
Gb|--5-5-5-5-----------5-5-5-5-----------|
Db|--5-5-5-5--3-3-3-3--5-5-5-5--5-5-5-5--|
Ab|--3-3-3-3--3-3-3-3--3-3-3-3--5-5-5-5--|
Eb|-----------1-1-1-1-----------3-3-3-3--|

Eb|--------------------------------------|
Bb|--------------------------------------|
Gb|--5-5-5-5-----------xx-x-5------------|   x5
Db|--5-5-5-5--3-3-3-3--xx-x-5--xxx-5-----|
Ab|--3-3-3-3--3-3-3-3--xx-x-3--xxx-5-----|
Eb|-----------1-1-1-1----------xxx-3-----|





Comments


Popular Hawk Nelson tabs & chords
California Bass Tabs
Eggshells Chords
Fourteen 4 Chords
Letters To The President Chords
Take Me 5 Chords
Zero Chords
Bring Em Out Tabs
Bring Em Out 2 Tabs
California Tabs
Fourteen Tabs


Song lyrics



↑ Back to top | Tablatures and chords are parodies/interpretations of the original songs. You may use it for private study, scholarship, research or language learning purposes only
© 2014 AZChords.com Contact us | Privacy policy | DMCA | Add/correct tabs | Request tabs | Top 50 tabs