>
 >
Live Life Loud

Live Life Loud Guitar Tabs

Hawk Nelson - Live Life Loud chords, tabs, tablatures, lyrics

Guitar lessons | Add/correct | Request | Top 50 tabs Artists:  A B C D E F G H I J K L M N O P Q R S T U V W X Y Z 0-9

Live Life Loud Guitar Tabs – Hawk Nelson

CD, Sheet music, Poster

Do you like Live Life Loud? Share with your friends now
Bass TabsChordsChords v2TabsUkulele
-------------------------------------------------------------
-------------------------------------------------------------
Both Guitars Sandard Tuning

Intro: 
(0:00-0:10)  no guitar

(0:11-0:22)            1st end.     2nd end.
e|------------------| |----------| |--------|
B|------------------| |----------| |--------|
G|------------6-----| |----------| |--------|
D|--2----6----6-x8--| |--7----9--| |--7-----|
A|--2-x8-6-x8-4-----| |--7-x8-9--| |--7-x8--|
E|--0----4----------| |--5----7--| |--5-----|

Verse:
(0:23-0:28) just bass and vocals

(0:29-0:34)
e|----------------------------|
B|----------------------------|
G|----------------------------|
D|--2-22--4-44--6-66--7-7242--|
A|--2-22--4-44--6-66--7-7242--|
E|--0-00--2-22--4-44--5-5020--|
    * **  * **  * **  * ****

Pre-Chorus:
(0:35-0:45)
e|-----------------------|
B|-----------------------|
G|-----------------------|
D|--2----4----6----7-----|
A|--2-x8-4-x8-6-x8-7-x8--|
E|--0----2----4----5-----|

e|--------------------------|
B|--------------------------|
G|-------------66666666-----|
D|--2----4-----66666666--7--|
A|--2-x8-4-x8--44444444--7--|
E|--0----2---------------5--|
    *    *     \       /
            gradually release palm mute 

Chorus:
(0:46-0:57)  Gtr. 1
e|------------------------------------|
B|------------------------------------|
G|---------44444444--66-66-6----------|
D|--2-22-2-44444444--66-66-6-77-7777--|
A|--2-22-2-22222222--44-44-4-77-7777--|
E|--0-00-0-------------------55-5555--|

Gtr. 2
e|-------------------------------------|
B|---------99-77-------------99-77-----|
G|---------------9~--------------------|
D|---------------------------------9~--|
A|-------------------------------------|
E|-------------------------------------|

Gtr. 1
e|-------------------------------------|
B|-------------------------------------|
G|--------------------66-66-6----------|
D|--22-22-2-44444444--66-66-6-77-7777--|
A|--22-22-2-44444444--44-44-4-77-7777--|
E|--00-00-0-22222222----------55-5555--|

Gtr. 2
e|------------------------------------------|
B|----------99-7-7------------99-9-7h9-7h9--|
G|--------------9-9-------------------------|
D|------------------------------------------|
A|------------------------------------------|
E|------------------------------------------|

Post-Chorus:
(0:58-1:09) Gtr.1
e|--------------------------------|
B|--------------------------------|
G|-----------------66666----------|
D|--22222--66-666--66666--77-777--| play this 
A|--22222--66-666--44444--77-777--|  twice
E|--00000--44-444---------55-555--|

Gtr. 2
e|-------------------------------------------------|
B|------9p7-----9s7-9h12----------9p7---------9----|
G|--6h9-----9------------11---6h9-----9---6h9---9--|
D|-------------------------------------------------|
A|-------------------------------------------------|
E|-------------------------------------------------|

Verse 2:
(1:09-1:26)
e|-------------------------------|
B|-------------------------------|
G|-------------------------------|
D|--2-22--4-4424--6-66--7-77679--|
A|--2-22--4-4424--6-66--7-77679--|
E|--0-00--2-2202--4-44--5-55457--|
    * **  * ****  * **  * *****

e|-------------------------------|
B|-------------------------------|
G|-------------------------------|
D|--2-1-2--4-2-4--6-4-6--7-7797--|
A|-------------------------------|
E|-------------------------------|
   \_____slight palm mute_____/

e|--0---0---0---0--|
B|--0---0---0---0--| not really sure
G|--9---9---9---9--| about this part
D|--9---9---9---9--|
A|--7---9---7---9--|
E|-----------------|

Pre-Chorus 2
(1:27-1:32)
e|--------------------------------|
B|--------------------------------|
G|-------------66666666--------|
D|--2----4-----66666666--7-----|
A|--2-x8-4-x8--44444444--7-x8--|
E|--0----2---------------5-----|
    *    *     \      /
            gradually release palm mute

Play Chorus (1:32-1:43)

Bridge:  not really any guitar but I just play these chords
(1:43-2:07)
e|--0--- 0---0---0--|
B|--0--- 0---0---0--|
G|--9---11---8---9--|
D|--9---11---8---9--| x4
A|--7--- 9---6---7--|
E|------------------|

Interlude:
(2:07-2:18) no guitar

(2:18-2:30)           1st end.     2nd end.
e|------------------| |----------| |--------|
B|------------------| |----------| |--------|
G|------------6-----| |----------| |--------|
D|--2----6----6-x8--| |--7----9--| |--7-----|
A|--2-x8-6-x8-4-----| |--7-x8-9--| |--7-x8--|
E|--0----4----------| |--5----7--| |--5-----|

Play Chorus (2:30-2:41)

Outro: Gtr. 1
(2:42-2:56)        1st end.        2nd end.
e|----------------|---------------|----------|
B|----------------|---------------|----------|
G|----------------|-66666---------|----------|
D|--22222--66-666-|-66666--77-777-|-34444320-|
A|--22222--66-666-|-44444--77-777-|----------|
E|--00000--44-444-|--------55-555-|----------|

Gtr. 2
e|-------------------------------------------------|
B|------9p7-----9s7-9h12----------9p7---------9----|
G|--6h9-----9------------11---6h9-----9---6h9---9--|
D|-------------------------------------------------|
A|-------------------------------------------------|
E|-------------------------------------------------|

Pretty easy tab. 99% sure it's right. Feel free to comment 
and please rate.





Comments


Popular Hawk Nelson tabs & chords
Something On My Mind Bass Tabs
Everything You Ever Wanted Chords
Things We Go Through Chords
Crazy Love 1 Tabs
I Heard The Bells On Christmas Day Tabs
Show Intro 2 Tabs
Somebody Else Tabs
One Little Miracle Ukulele
Stagefright Ukulele
The Meaning Of Life Ukulele


Song lyrics



↑ Back to top | Tablatures and chords are parodies/interpretations of the original songs. You may use it for private study, scholarship, research or language learning purposes only
© 2014 AZChords.com Contact us | Privacy policy | DMCA | Add/correct tabs | Request tabs | Top 50 tabs