>
 >
Ancient History

Ancient History Guitar Tabs

Hawk Nelson - Ancient History chords, tabs, tablatures, lyrics

Guitar lessons | Add/correct | Request | Top 50 tabs Artists:  A B C D E F G H I J K L M N O P Q R S T U V W X Y Z 0-9

Ancient History Guitar Tabs – Hawk Nelson

CD, Sheet music, Poster

Do you like Ancient History? Share with your friends now
Tabs

h= hammer on
p= pull off
/= slide
*= palm mute
b= 1/2 bend

e---------------------------------------------------------|
b---------------------------------------------------------|
g----------------5-5-5-5-5-5-5--3-3-3-3-3-3-3--5-5-5-5----|
d-5-5-5-5-5-5-5--5-5-5-5-5-5-5--3-3-3-3-3-3-3--5-5-5-5----| x5
a-5-5-5-5-5-5-5--3-3-3-3-3-3-3--1-1-1-1-1-1-1--3-3-3-3----|
e-3-3-3-3-3-3-3----*-*---*-*------*-*---*-*----*---*------|
    * *   * *  


e---------------------------------|
b-5---5---5---5---6---5---6---5---|
g---4---4---4---4---4---4---4---4-|
d---------------------------------|
a---------------------------------|
e---------------------------------|

          she don't want any thing other .... 
e-------------------------------------------------------------|
b-------------------------------------------------------------|
g-12-12-10-10-9-9-8-8-12-12-10-10-9-9-8-8-12-12-10-10-9-9-8-8-| continue
d-------------------------------------------------------------| on next
a-------------------------------------------------------------|  line
e-------------------------------------------------------------|


e---------------------|
b---------------------|
g-13-13-10-10-9-9-8-8-| x3  play this
d---------------------|     very fast
a---------------------|
e---------------------|

    I will solve your mystery and make it ancient history... 
e---------------------------------|
b-5---5---5---5---6---5---6---5---|
g---4---4---4---4---4---4---4---4-|
d---------------------------------|
a---------------------------------|
e---------------------------------|


e---------------------------------------------------------|
b---------------------------------------------------------|
g----------------5-5-5-5-5-5-5--3-3-3-3-3-3-3--5-5-5-5----|
d-5-5-5-5-5-5-5--5-5-5-5-5-5-5--3-3-3-3-3-3-3--5-5-5-5----|
a-5-5-5-5-5-5-5--3-3-3-3-3-3-3--1-1-1-1-1-1-1--3-3-3-3----|
e-3-3-3-3-3-3-3----*-*---*-*------*-*---*-*----*---*------|
    * *   * *
e------------------------------|
b------------------------------|
g----------------5-5-5-5-5-5-5-|
d-5-5-5-5-5-5-5--5-5-5-5-5-5-5-|
a-5-5-5-5-5-5-5--3-3-3-3-3-3-3-|
e-3-3-3-3-3-3-3----*-*---*-*---|
    * *   * *


e------------------------------------------------------|
b------------------------------------------------------|
g----------------5-5-5-5-5-5-5--3-3-3-3-3-3-3--5-5-5-5-| x2
d-5-5-5-5-5-5-5--5-5-5-5-5-5-5--3-3-3-3-3-3-3--5-5-5-5-|
a-5-5-5-5-5-5-5--3-3-3-3-3-3-3--1-1-1-1-1-1-1--3-3-3-3-|
e-3-3-3-3-3-3-3----*-*---*-*------*-*---*-*----*---*---|
    * *   * * 

  theres no one and ....
e---------------------------------|
b-5---5---5---5---6---5---6---5---|
g---4---4---4---4---4---4---4---4-|
d---------------------------------|
a---------------------------------|
e --------------------------------|



e-------------------------------------------------------------|
b-------------------------------------------------------------|
g-12-12-10-10-9-9-8-8-12-12-10-10-9-9-8-8-12-12-10-10-9-9-8-8-| continue
d-------------------------------------------------------------| on next
a-------------------------------------------------------------|  line
e-------------------------------------------------------------|



e---------------------|
b---------------------|
g-13-13-10-10-9-9-8-8-| x3
d---------------------| play this fast
a---------------------|
e---------------------|


   I will solve your mystery ...
e---------------------------------|
b-5---5---5---5---6---5---6---5---|
g---4---4---4---4---4---4---4---4-|
d---------------------------------|
a---------------------------------|
e---------------------------------|



e--------------------------------------------|
b--------------------------------------------|
g------------5555-5-55--3333-3-33--5555-5-55-|
d-5555-5-55--5555-5-55--3333-3-33--5555-5-55-|
a-5555-5-55--3333-3-33--1111-1-11--3333-3-33-|
e-3333-5-33----------------------------------|


   please believe me...
e---------------------------------------------------------|
b---------------------------------------------------------|
g------------------5-5-5-5-5-5-5-5--3-3-3-3-3-3-3-3-----3-|
d-5-5-5-5-5-5-5-5--5-5-5-5-5-5-5-5--3-3-3-3-3-3-3-3--5--3-|
a-5-5-5-5-5-5-5-5--3-3-3-3-3-3-3-3--1-1-1-1-1-1-1-1--5--1-|
e-3-3-3-3-3-3-3-3------------------------------------3----|


solo:
e-------------------------------------------------------------|
b-------------------------------------------------------------|
g-12-12-10-10-9-9-8-8-13-13-10-10-9-9-8-8-14-14-10-10-9-9-8-8-| continue on
d-------------------------------------------------------------| next line
a-------------------------------------------------------------|
e-------------------------------------------------------------|



e--------------------------------------------------------------|
b--------------------------------------------------------------|
g-12b-9-8-12-10-9-8-12b-9-8-14-14-14-13-13-13-10-10-10-9-9-9-8-| this is
d--------------------------------------------------------------|played fast
a--------------------------------------------------------------|
e--------------------------------------------------------------|


   she don't say...
e-------------------------------------------------------------|
b-------------------------------------------------------------|
g-12-12-10-10-9-9-8-8-12-12-10-10-9-9-8-8-12-12-10-10-9-9-8-8-| continue on 
d-------------------------------------------------------------|  next line
a-------------------------------------------------------------|
e-------------------------------------------------------------|



e---------------------|
b---------------------|
g-13-13-10-10-9-9-8-8-| x2
d---------------------|
a---------------------|
e---------------------|



e---------------------------------|
b-5---5---5---5---6---5---6---5---|
g---4---4---4---4---4---4---4---4-|
d---------------------------------|
a---------------------------------|
e---------------------------------|



e-------------------------------------------------------------|
b-------------------------------------------------------------|
g-12-12-10-10-9-9-8-8-12-12-10-10-9-9-8-8-12-12-10-10-9-9-8-8-|
d-------------------------------------------------------------|
a-------------------------------------------------------------|
e-------------------------------------------------------------|



e---------------------|
b---------------------|
g-13-13-10-10-9-9-8-8-| x3
d---------------------|
a---------------------|
e---------------------|



e-----------------------------------------|
b-----------------------------------------|
g-12-10-9-8-12-10-9-8-12-10-9-8-13-10-9-8-|
d-----------------------------------------|
a-----------------------------------------|
e-----------------------------------------|



end on:
e----|
b----|
g-5~-|
d-5~-|
a-3~-|
e----|





Comments


Popular Hawk Nelson tabs & chords
Every Little Thing Chords
Everything You Ever Wanted 2 Chords
From Underneath Chords
Stagefright 2 Chords
Take Me 5 Chords
California Intro Tabs
Fourteen 3 Tabs
Stagefright Ukulele
The Meaning Of Life Ukulele
Things We Go Through Ukulele


Song lyrics



↑ Back to top | Tablatures and chords are parodies/interpretations of the original songs. You may use it for private study, scholarship, research or language learning purposes only
© 2014 AZChords.com Contact us | Privacy policy | DMCA | Add/correct tabs | Request tabs | Top 50 tabs