» » »

Hater, Who Do I Kill Tabs (ver.2)

Artists:  A B C D E F G H I J K L M N O P Q R S T U V W X Y Z # 

Who Do I Kill Tabs (ver.2)

Hater Tabs
Rating:
0/5 (0 votes)
Who Do I Kill lessons Tabs too difficult? Try these video lessons and learn fast
                "Who Do I Kill" by Hater
                              from the CD "Hater"


  1        2       3        4          1        2       3        4         
|------------------------------------|------------------------------------|
|------------------------------------|------------------------------------|
|------------------------------------|------------------------------------|
|-7-------------------------7--------|-5--------7-------7--------5--------|
|-7-------------------------7--------|-5--------7-------7--------5--------|
|-5-------------------------5--------|-3--------5-------5--------3--------|

  1        2       3        4         
|------------------------------------|
|------------------------------------|
|-(1)--------------------------------|
|-(2)--------------------------------|    once
|-(2)--------------------------------|
|-(0)--------------------------------|

  1        2       3        4          1        2       3        4         
|------------------------------------|------------------------------------|
|------------------------------------|------------------------------------|
|------------------------------------|------------------------------------|
|-7-------------------------7--------|-5--------7-----------------7-------|
|-7-------------------------7--------|-5--------7-----------------7-------|
|-5-------------------------5--------|-3--------5-----------------5-------|

  1        2       3        4          1        2       3        4         
|------------------------------------|------------------------------------|
|------------------------------------|------------------------------------|
|------------------------------------|---------------------------1--------|
|-7-------------------------7--------|-5--------7-------7--------2--------|
|-7-------------------------7--------|-5--------7-------7--------2--------|
|-5-------------------------5--------|-3--------5-------5--------0--------|

  1        2       3        4         
|------------------------------------|
|------------------------------------|
|-(1)--------------------------------|
|-(2)--------------------------------|    three times
|-(2)--------------------------------|
|-(0)--------------------------------|


  1        2       3        4          1        2       3        4         
|------------------------------------|------------------------------------|
|------------------------------------|------------------------------------|
|------------------------------------|------------------------------------|
|-7-------------------------7--------|-5--------7-----------------7-------|
|-7-------------------------7--------|-5--------7-----------------7-------|
|-5-------------------------5--------|-3--------5-----------------5-------|

  1        2       3        4          1        2       3        4         
|------------------------------------|------------------------------------|
|------------------------------------|------------------------------------|
|------------------------------------|------------------------------------|
|-7----------------7--------5--------|-7--------7-------7-----------------|
|-7----------------7--------5--------|-7--------7-------7-----------------|
|-5----------------5--------3--------|-5--------5-------5-----------------|

once

Chorus:

  1        2       3        4          1        2       3        4         
|------------------------------------|------------------------------------|
|------------------------------------|------------------------------------|
|------------------------------------|----------7-------7-----------------|
|-7----------------7--------7--------|-7--------7-------7-----------------|
|-7----------------7--------7--------|-7--------5-------5-----------------|
|-5----------------5--------5--------|-5----------------------------------|

  1        2       3        4          1        2       3        4         
|------------------------------------|------------------------------------|
|------------------------------------|------------------------------------|
|-9----------------9--------9--------|-9--------7----------------7--------|
|-9----------------9--------9--------|-9--------7-------7--------7--------|
|-7----------------7--------7--------|-7--------5-------7--------5--------|
|------------------------------------|------------------5-----------------|

  1        2       3        4          1        2       3        4         
|------------------------------------|------------------------------------|
|------------------------------------|------------------------------------|
|-7----------------7--------7--------|-7--------7-------7--------7--------|
|-7----------------7--------7--------|-7--------7-------7--------7--------|
|-5----------------5--------5--------|-5--------5-------5--------5--------|
|------------------------------------|------------------------------------|

Two times then back to beginning

then after second chorus add

  1        2       3        4          1        2       3        4         
|------------------------------------|------------------------------------|
|------------------------------------|------------------------------------|
|------------------------------------|------------------------------------|
|-7----------------7--------7--------|-7--------7-------7--------7--------|
|-7----------------7--------7--------|-7--------7-------7--------7--------|
|-5----------------5--------5--------|-5--------5-------5--------5--------|

  1        2       3        4          1        2       3        4         
|------------------------------------|------------------------------------|
|------------------------------------|------------------------------------|
|-9--------9-------9--------9--------|-9--------9-------9--------9--------|
|-9--------9-------9--------9--------|-9--------9-------9--------9--------|
|-7--------7-------7--------7--------|-7--------7-------7--------7--------|
|------------------------------------|------------------------------------|

  1        2       3        4          1        2       3        4         
|------------------------------------|------------------------------------|
|------------------------------------|------------------------------------|
|-9--------9-------9--------9--------|-9----------------BANG!-------------|
|-9--------9-------9--------9--------|-9----------------------------------|
|-7--------7-------7--------7--------|-7----------------------------------|
|------------------------------------|------------------------------------|

Then start over again and include the part after the second chorus.

Then (just guitar)

  1        2       3        4          1        2       3        4         
|------------------------------------|------------------------------------|
|------------------------------------|------------------------------------|
|------------------------------------|------------------------------------|
|-7-------------------------7--------|-5--------7-------7--------5--------|
|-7-------------------------7--------|-5--------7-------7--------5--------|
|-5-------------------------5--------|-3--------5-------5--------3--------|

  1        2       3        4         
|------------------------------------|
|------------------------------------|
|-(1)--------------------------------|
|-(2)--------------------------------|
|-(2)--------------------------------|
|-(0)--------------------------------|

  1        2       3        4          1        2       3        4         
|------------------------------------|------------------------------------|
|------------------------------------|------------------------------------|
|------------------------------------|------------------------------------|
|-7-------------------------7--------|-5--------7-----------------7-------|
|-7-------------------------7--------|-5--------7-----------------7-------|
|-5-------------------------5--------|-3--------5-----------------5-------|

  1        2       3        4          1        2       3        4         
|------------------------------------|------------------------------------|
|------------------------------------|------------------------------------|
|------------------------------------|------------------------------------|
|-7----------------7--------5--------|-7--------7-------7-----------------|
|-7----------------7--------5--------|-7--------7-------7-----------------|
|-5----------------5--------3--------|-5--------5-------5-----------------|


Two times

Then the Chorus but instead of the ending from the second and third chorus's
just keep pounding that last E chord at the 7th fret into a fade-out.
        \|||/         
+-.oooO--(_)--Oooo.---------------------------------------+
                  "Duct tape is a lot like the force.  It 
   .oooO          has a light side and a dark side and it
   (   )   Oooo.    holds the universe together."
+---\ (----(   )------------------------------------------+
           (_/     for fan club and mailing list info
            
Submit corrections

comments powered by Disqus
↑ Back to top | Hater Tabs for Who Do I Kill. Lyrics for acoustic guitar and electric guitar. Tablatures and chords are parodies/interpretations of the original songs. You may use it for private study, scholarship, research or language learning purposes only