» » »

King Of All Kings Tabs (ver.4)

Artists:  A B C D E F G H I J K L M N O P Q R S T U V W X Y Z # 

King Of All Kings Tabs (ver.4)

Hate Eternal
Rating:
0/5 (0 votes)

Tabs too difficult? Try these video lessons and learn fast.
                band;hate eternal
song;king of all kings
album; king of all kings
tuning from low to high c#,f#,b,e,g#,c#
this song is just awesome and this may be the correct version of it
putting in standard so its easier to read im saying this is advanced because its 
played so damn fast

intro
e-----------------------------------------------------------------------|
b-----------------------------------------------------------------------|
g-----------------------------------------------------------------------|
d---7-------7-------7-------7-------7-------7-------10--------12-----10-|
a-----------------------------------------------------------------------|
e-5---666-5---666-5---666-5---666-5---666-5---666-8----101010----888----|

intro continued play all of this 4 times
e---------------------------------------------------------------|
b---------------------------------------------------------------|
g---------------------------------------------------------------|
d-----8---7-------7-------7-------7-------7-------7-----5-----4-|
a---------------------------------------------------------------|
e-666---5---666-5---666-5---666-5---666-5---666-5---333---222---|

this is only played once
e-------------|
b-------------|
g-------------|
d-8--4--7--3--|
a-------------|
e-6--2--5--1--|

riff 1
e-------------------------------------------------------------------------|
b-------------------------------------------------------------------------|
g-------------------------------------------------------------------------|
d-------------------------------------------55554444----------------------|
a----------------------------------44445555-------------------------------|
e-11114444333311112222444433334444-------------------33334444333344441111-|

riff 1 continued
e----------------------------------------------------------------------------|
b----------------------------------------------------------------------------|
g----------------------------------------------------------------------------|
d-------------------------------------------------------------------55554444-|
a----------------------------------------------------------44445555----------|
e-44445555888877775555444433334444333311112222444433334444-------------------|

riff 1 still continued
e------------------------------|
b------------------------------|
g------------------------------|
d----------------------4-----9-|
a------------------------------|
e-3333444433331111-222---777---|
                   ...   ...

intro again
e-------------------------------------------------------------------------|
b-------------------------------------------------------------------------|
g-------------------------------------------------------------------------|
d---7-------7-------7-------7-------7-------7---------10--------12-----10-|
a-------------------------------------------------------------------------|
e-5---666-5---666-5---666-5---666-5---666-5---666-888----101010----888----|

intro still continued this time play all of the intro 2 times
e---------------------------------------------------------------|
b---------------------------------------------------------------|
g---------------------------------------------------------------|
d-----8---7-------7-------7-------7-------7-------7-----5-----4-|
a---------------------------------------------------------------|
e-666---5---666-5---666-5---666-5---666-5---666-5---333---222---|

this here below is only played once
e-------------------------|
b-------------------------|
g-------------------------|
d-8--4--7--3--7--3--6--2--|
a-------------------------|
e-6--2--5--1--5--1--4--0--|

now riff 1 again play all of it 2 times
e-------------------------------------------------------------------------|
b-------------------------------------------------------------------------|
g-------------------------------------------------------------------------|
d-------------------------------------------55554444----------------------|
a----------------------------------44445555-------------------------------|
e-11114444333311112222444433334444-------------------33334444333344441111-|

riff 1 continued
e----------------------------------------------------------------------------|
b----------------------------------------------------------------------------|
g----------------------------------------------------------------------------|
d-------------------------------------------------------------------55554444-|
a----------------------------------------------------------44445555----------|
e-44445555888877775555444433334444333311112222444433334444-------------------|

riff 1 still continued remember play all of it 2 times
e------------------------------|
b------------------------------|
g------------------------------|
d----------------------4-----9-|
a------------------------------|
e-3333444433331111-222---777---|

riff 2 play this 4 times
e-----------------------------|
b-----------------------------|
g----10----11-----12----------|
d-4---9-4--10--4--11--4-8/7/8-|
a-3---8-3---9--3--10--3-7/6/7-|
e-2---7-2---8--2---9--2-6/5/6-|

solo starts after riff 2 now go back and play all of riff 1 two times again
then play all of the intro 3 times
then play this here below once to end the song

e---------------|
b---------------|
g---------------|
d-8--4--7--3--2-|
a-------------2-|
e-6--2--5--1--0-|
            
Tabs too difficult? Try these video lessons and learn fast.


comments powered by Disqus
↑ Back to top | Tablatures and chords are parodies/interpretations of the original songs. You may use it for private study, scholarship, research or language learning purposes only