» » »

Hate Eternal, King Of All Kings Tabs (ver.3)

Artists:  A B C D E F G H I J K L M N O P Q R S T U V W X Y Z # 

King Of All Kings Tabs (ver.3)

Hate Eternal Tabs
 Rating:
4/5 (4 votes)
King Of All Kings lessons Tabs too difficult? Try these video lessons and learn fast
1
                band;hate eternal
album;king of all kings
song;king of all kings
tuning from low to high c#,f#,b,e,g#,c#
okay i think i have finally got the whole song down
what it is this is actually both guitars together in one
so putting in standard so its easier to read
for hate eternal weather there good or bad that way i can rework on them and make
them 100% correct the next time thats all i ask of you guys if i knew where you
guys live at i would buy us all some beer!!!!!!!!
anyway here is the tab

one guitar is playing the lowest string while the other is playing higher
main intro
e--------------------------------------------------------------------------|
b--------------------------------------------------------------------------|
g--------------------------------------------------------------------------|
d-7-88-7-88-7-88-7-88-7-88-7-88-7-88-7-88-10-1212-10-8-7-88-7-88-7-88-55-4-|
a--------------------------------------------------------------------------|
e-5-66-5-66-5-66-5-66-5-66-5-66-5-66-5-66--8-1010--8-6-5-66-5-66-5-66-33-2-|

e----------------------------------------------------------------------------|
b----------------------------------------------------------------------------|
g----------------------------------------------------------------------------|
d-7-88-7-88-7-88-7-88-7-88-7-55-4-7-88-7-88-7-88-7-88-7-88-10-1212-10-8-7-88-|
a----------------------------------------------------------------------------|
e-5-66-5-66-5-66-5-66-5-66-5-33-2-5-66-5-66-5-66-5-66-5-66--8-1010--8-6-5-66-|

e-------------------------------------------------------------------------|
b-------------------------------------------------------------------------|
g-------------------------------------------------------------------------|
d-7-88-7-88-7-88-7--8--4--7--3---------------------------------------3333-|
a-------------------------------444444777777333333888888444444666666------|
e-5-66-5-66-5-66-5--6--2--5--1--333333666666222222777777333333555555------|

e-------------------------|
b-------------------------|
g-------------------------|
d---------------------4/9-| when sliding down kill the note
a-444444333333------------|
e--------------000000-2/7-|
               ......
e-------------------------------------------------------------------------|
b-------------------------------------------------------------------------|
g-------------------------------------------------------------------------|
d-7-88-7-88-7-88-7-88-7-88-7-88-7-88-7-88-7-88-7-55-4-7-88-7-88-7-88-7-88-|
a-------------------------------------------------------------------------|
e-5-66-5-66-5-66-5-66-5-66-5-66-5-66-5-66-5-66-5-33-2-5-66-5-66-5-66-5-66-|

e----------------------------------------------------------------------------|
b----------------------------------------------------------------------------|
g----------------------------------------------------------------------------|
d-7-88-7-88-7-88-10-1212-10-8-7-88-7-88-7-88-7-88-7-88-7-55-4-7-88-7-88-7-88-|
a----------------------------------------------------------------------------|
e-5-66-5-66-5-66--8-1010--8-6-5-66-5-66-5-66-5-66-5-66-5-33-2-5-66-5-66-5-66-|

e----------------------------------------------------------------------|
b----------------------------------------------------------------------|
g----------------------------------------------------------------------|
d-7-88-7--8--4--7--3--8--4--7--3---------------------------------------|
a---------------------------------444444777777333333888888444444666666-|
e-5-66-5--6--2--5--1--6--2--5--1--333333666666222222777777333333555555-|

e--------------------------------|
b--------------------------------|
g--------------------------------|
d-333333---------------------4/9-|
a--------444444333333------------| remember when sliding kill the note
e---------------------000000-2/7-|

play this 4 times
e----------------|
b----------------|
g-5-10-5-11-5-12-| a solo starts here but rhythm keeps playing this
d-4--9-4-10-4-11-|  then play the main intro again and thats it end of the
a-3--8-3--9-3-10-|  f**king amazing song
e-2--7-2--8-2--9-|
            
Submit corrections

comments powered by Disqus
↑ Back to top | Hate Eternal Tabs for King Of All Kings. Lyrics for acoustic guitar and electric guitar. 1 Tablatures and chords are parodies/interpretations of the original songs. You may use it for private study, scholarship, research or language learning purposes only