» » »

Hatebreed, Under The Knife Tabs (ver.2)

Artists:  A B C D E F G H I J K L M N O P Q R S T U V W X Y Z # 

Under The Knife Tabs (ver.2)

Hatebreed Tabs
Rating:
0/5 (0 votes)
Under The Knife lessons Tabs too difficult? Try these video lessons and learn fast
                Listen to cd for rhythm and timing

Tuning:  C G C F A D (drop D, whole step down)

-0---3-5-4-3------------------------------------------------------------------
-0---3-5-4-3------------------------------------------------------------------
                                                                              

----------------------------------------3-5-4-3-------0-----------------------
-0-0-0-0-0-0-0-3-5-4-3--0-0-0-0-0-0-0-0-3-5-4-3-------0-----------------------
                                               (x4)   ^ hold out              

-------------------------|----------------------------------------------------
-------------------------|----------------------------------------------------
-------------------------|----------------------------------------------------
-------------------------|----------------------------------------------------
-5-0-1-0--0-1-0-1--------|--0-------------------------3-5-4-3-----------------
-5-0-1-0--0-1-0-1--------|--0-------------------------3-5-4-3-----------------
                 (x12)      ^ hold out "forever..."                           

----------------------------------------3-5-4-3-------------------------------
-0-0-0-0-0-0-0-3-5-4-3--0-0-0-0-0-0-0-0-3-5-4-3-------------------------------
                                               (x4)
            

comments powered by Disqus
↑ Back to top | Hatebreed Tabs for Under The Knife. Lyrics for acoustic guitar and electric guitar. Tablatures and chords are parodies/interpretations of the original songs. You may use it for private study, scholarship, research or language learning purposes only