» » »

Prepare For War Tabs (ver.1)

Artists:  A B C D E F G H I J K L M N O P Q R S T U V W X Y Z # 

Prepare For War Tabs (ver.1)

Hatebreed
Rating:
0/5 (0 votes)

Tabs too difficult? Try these video lessons and learn fast.
                
Tuning (Low to High)-D, G, C, F, A, D
In the first riff, after you slide, you must strike the note that you slide up to. During this song, I will only show the necessary strings, which would be the G and D strings. HAVE FUN!
Intro   4x
G|--5-----3--------------|
D|--3-----1--------------|

Riff 1         12x
G|--5-|---2------3/4-----4/5-----8-----7-----| play G5 first time 
D|--3-|---0--0-0-1/2-0-0-2/3-0-0-6-0-0-5-----| only.
             Pm-|    pm-|    pm-|  pm-|

G|--2--------(2)--2-----|
D|--0--------(0)--0-----|

G|---------2----|
D|--0-0-\--0----|
    Pm-|
               8x
D|---0--2--4--6-----|
     Pm--------|

               8x
G|---2--4--6--8-----|
D|---0--2--4--6-----|

Repeat Riff 1 (12x)
Then play:

G|---2--------(2)--2-----|
D|---0--------(0)--0-----|
            
Tabs too difficult? Try these video lessons and learn fast.




comments powered by Disqus
↑ Back to top | Tablatures and chords are parodies/interpretations of the original songs. You may use it for private study, scholarship, research or language learning purposes only