» » »

Hatebreed, I Will Be Heard Tabs (ver.3)

Artists:  A B C D E F G H I J K L M N O P Q R S T U V W X Y Z # 

I Will Be Heard Tabs (ver.3)

Hatebreed Tabs
 Rating:
4/5 (4 votes)
I Will Be Heard lessons Tabs too difficult? Try these video lessons and learn fast
                Tune down two whole steps. Play using power chords.	PM = Palm Muting


Main riff - "Now is the time..."
|------------------------------------------------------||
|------------------------------------------------------||
|------------------------------------------------------||
|-----------------------------------------------x-x-x-x||
|-----------------------------------------------x-x-x-x||
|-1-0--1-0-0-1--3-0--1-0-0-1--3-0--1-0-0-1--3-0-x-x-x-x||


Second part - "cause I trusted for nothing!"
|----------------------------------------------||
|----------------------------------------------||
|----------------------------------------------||
|----------x---x---x---xx----------x---x---x---||
|----------x---x---x---xx----------x---x---x---||
|-3-5-0-6--x0--x8--x0--xx-3-5-0-6--x0--x1--x0--||


Third part - "I....WILL....BE (I will be heard!)"
|-----------------------------------------------------------||
|-----------------------------------------------------------||
|-----------------------------------------------------------||
|-----------------------------------------------------------||
|-----------------------------------------------------------||
|-111-0-0-0-0----111-0-0-0-0----111-0-0-0-0----1--x-x-4--3-1||
PM.........................................

High part
|------------------------------------------------------------||
|------------------------------------------------------------||
|-9--------10----12----9--------10----12----9--------10----12||
|------------------------------------------------------------||
|------------------------------------------------------------||
|------------------------------------------------------------||


"Through the words we prevail..."
|----------------------------------------------------------------||
|----------------------------------------------------------------||
|----------------------------------------------------------------||
|----------------------------------------------------------------||
|----------------------------------------------------------------||
|-0-0-0-0-0-0-0-0-0-0-0-0-0-0-0-0-1-1-1-1-1-1-1-1-3-3-3-3-3-3-3-3||
            
Submit corrections

comments powered by Disqus
↑ Back to top | Hatebreed Tabs for I Will Be Heard. Lyrics for acoustic guitar and electric guitar. Tablatures and chords are parodies/interpretations of the original songs. You may use it for private study, scholarship, research or language learning purposes only