>
 >
Immortal Enemies 2

Immortal Enemies 2 Bass Tabs

Hatebreed - Immortal Enemies 2 chords, tabs, tablatures, lyrics

Guitar lessons | Add/correct | Request | Top 50 tabs Artists:  A B C D E F G H I J K L M N O P Q R S T U V W X Y Z 0-9

Immortal Enemies 2 Bass Tabs – Hatebreed

CD, Sheet music, Poster

Do you like Immortal Enemies 2? Share with your friends now
Bass TabsBass Tabs v2
Immortal Enemies By Hatebreed Bass Tabs.

Tuning: Standard (E, A, D, G);

Intro:

G|-------------------------------------------------|
D|-------------------------------------------------|
A|-------1-2-3~~~-3--------6-5-4-------------------|
E|------------------6-4~~--------------------------|

G|-------------------------------------------------|
D|-------------------------------------------------|
A|-1h3~-1h3~-1h3~---6-5-4~~~-----------------------|
E|-------------------------------------------------|

Verse:

G|-------------------------------------------------|
D|-------------------------------------------------|
A|-3~-3~---1h4~-1h3~-1h4~--3-3-3-3-3-3~------------|
E|-------------------------------------------------|

G|-------------------------------------------------|
D|-------------------------------------------------|
A|----3~---1h4~-1h3~-1h4~--3-3-3-3-3-3-3-3-3~------| X5
E|-------------------------------------------------|

Chorus:

G|-------------------------------------------------|
D|-------------------------------------------------|
A|--3--3--3--3--3--3--3--3--3--3--3--3--3--3--3--3-|
E|-------------------------------------------------|

G|-------------------------------------------------|
D|-------------------------------------------------|
A|--3-3-3~~---3-3-3-3-3~~~-------------------------| X7
E|-------------------------------------------------|

Outro:

G|-------------------------------------------------|
D|-------------------------------------------------|
A|-------1-2-3~~~-3-------------------6-5-4--------|
E|------------------6-4~~--------------------------|

G|-------------------------------------------------|
D|-------------------------------------------------|
A|--3--3--3--3--3--3--3--3--3--3--3--3--3--3--3--3-| X3
E|-------------------------------------------------|

G|-------------------------------------------------|
D|-------------------------------------------------|
A|-3~-3~---1h4~-1h3~-1h4~--3-3-3-3-3-3~------------|
E|-------------------------------------------------|

G|-------------------------------------------------|
D|-------------------------------------------------|
A|----3~---1h4~-1h3~-1h4~--3-3-3-3-3-3-3-3-3~------| X5
E|-------------------------------------------------|

Playing Order:
Intro
Verse
Chorus
Verse
Chorus
Outro





Comments


Popular Hatebreed tabs & chords
Divine Judgement Bass Tabs
Every Lasting Scar Bass Tabs
Live For This Intro Tabs
Never Let It Die Tabs
Not One Truth 1 Tabs
Outro Tabs
Perseverance 1 Tabs
Perseverence Tabs
Prepare For War Tabs
This Is Now 2 Tabs


Song lyrics



↑ Back to top | Tablatures and chords are parodies/interpretations of the original songs. You may use it for private study, scholarship, research or language learning purposes only
© 2014 AZChords.com Contact us | Privacy policy | DMCA | Add/correct tabs | Request tabs | Top 50 tabs